Artists by letter: A B C D E F G H I J K L M N O P Q R S T U V W X Y Z 0-9

 
Doc Holliday Tab
-------------------------------------------------------------------------------
                             Doc Holliday - Volbeat
-------------------------------------------------------------------------------
Tabbed by: DjSnoWMan

Tuning: D standard

************************************

| \   slide down
| h   hammer-on
| p   pull-off
| ~   vibrato
| x   Mute note
| b   Bend
| br  Bend release

************************************

Intro 1 - Played 2 times
  1   +   2   +   3   +   4   +   1   +   2   +   3   +   4   +   
d|-------------------------------|--------------------------------|    
A|-------------------------------|--------------------------------|    
F|-------------------------------|--------------------------------|     
C|-------------------------------|--------------------------------|
G|-------------------------------|--------------------------------|
D|0-------7--------------\5---3--|3h5-3---0-----------------------|

  1   +   2   +   3   +   4   +   1   +   2   +   3   +   4   +   
d|-------------------------------|--------------------------------|
A|-------------------------------|--------------------------------|
F|-------------------------------|--------------------------------|       
C|-------------------------------|--------------------------------|
G|-------------------------------|----------------3---------------|
D|0-------7--------------\5---3--|3h5-3---0-------1---------------|


Intro Fill
  1   +   2   +   3   +   4   +   1   +   2   +   3   +   4   +   
d|-------------------------------|--------------------------------|
A|-------------------------------|--------------------------------|
F|-------------------------------|--------------------------------|
C|-------------------------------|--------------------------------|
G|2-------3-------2--------------|--------------------------------|
D|0-------1-------0--------------|--------------------------------|


Intro 2 - Played 4 times
  1 + 2 + 3 + 4 + 1 + 2 + 3 + 4 + 1 + 2 + 3 + 4 + 1 + 2 + 3 + 4 +  
d|---------------|---------------|---------------|---------------|
A|---------------|---------------|---------------|---------------|
F|---------------|---------------|---------------|---------------|
C|--------9------|--------9---9-10---------------|---------------|
G|--7------------|--7------------|--7-----7------|---------------|
D|0---0-0-----0-0|0---0-0---0----|0---0-0-----0-0|0-0-0-0-0-0-0-0|
  x   x x  ~~ x x x   x x   x     x   x x  ~~ x x x x x x x x x x


Intro 2 + Harmony - Played 2 times
Guitar 1

    repeats intro 2, 2 more times

Guitar 2
  1 + 2 + 3 + 4 + 1 + 2 + 3 + 4 + 1 + 2 + 3 + 4 + 1 + 2 + 3 + 4 +  
d|---------------|---------------|---------------|---------------|
A|---------------|---------------|---------------|---------------|
F|---------------|---------------|---------------|---------------|
C|--------12-----|--------12--1214---------------|---------------|
G|--10-----------|--10-----------|--10----10-----|---------------|
D|0---0-0-----0-0|0---0-0---0----|0---0-0-----0-0|0-0-0-0-0-0-0-0|
  x   x x  ~~ x x x   x x   x     x   x x  ~~ x x x x x x x x x x

    repeat

Intro 3
  1 + 2 + 3 + 4 + 1 + 2 + 3 + 4 + 1 + 2 + 3 + 4 + 1 + 2 + 3 + 4 +   
d|---------------|---------------|---------------|---------------|
A|---------------|---------------|---------------|---------------|
F|---------------|---------------|---------------|---------------|       1st
C|9-----9-----9--|--9-----9---7-109-----9-----9--|---------------|
G|7-----7-----7--|--7-----7---5-8|7-----7-----7--|---------------|
D|--0-0---0-0---0|0---0-0---0----|--0-0---0-0---0|000-0-000-0-0--|
    x x   x x   x x   x x   x       x x   x x   x xxx x xxx x x

  1 + 2 + 3 + 4 + 1 + 2 + 3 + 4 + 1 + 2 + 3 + 4 + 1  .  .  3  .  .
d|---------------|---------------|---------------|-----------------|  (Those last six notes are  
A|---------------|---------------|---------------|-----------------|   triplets. They are pick  
F|---------------|---------------|---------------|-----------------|   scrapes while sliding down
C|9-----9-----9--|--9-----9---7-109-----9-----9--|-----------------|   the fretboard.)
G|7-----7-----7--|--7-----7---5-8|7-----7-----7--|X--X--X--X--X--X-|
D|--0-0---0-0---0|0---0-0---0----|--0-0---0-0----|X--X--X--X--X--X-|
    x x   x x   x x   x x   x       x x   x x     x \x \x \x \x \x

     repeat 1st measure, 4 more times


Pre Verse
  1 + 2 + 3 + 4 + 1 + 2 + 3 + 4 + 1 + 2 + 3 + 4 + 1 + 2 + 3 + 4 + 
d|---------------|---------------|---------------|---------------|
A|---------------|---------------|---------------|---------------|
F|---------------|---------------|---------------|---------------|
C|109------------|--------10101010109-7---9------|---------------|
G|8-7------------|--------8-8-8-8|8-7-5---7------|---------------|
D|---------------|---------------|---------------|---------------|
   \                               \ \

  1 + 2 + 3 + 4 + 1 + 2 + 3 + 4 + 1 + 2 + 3 + 4 + 1 + 2 + 3 + 4 + 
d|---------------|---------------|---------------|---------------|
A|---------------|---------------|---------------|---------------|
F|---------------|---------------|---------------|---------------|
C|109------------|--------10101010109-7---9------|---------------|
G|8-7------------|--------8-8-8-8|8-7-5---7------|9-9-9-9-9-9-9-9|
D|---------------|---------------|---------------|7-7-7-7-7-7-7-7|
   \                               \ \            x x x x x x x x


Verse
  1 + 2 + 3 + 4 + 1 + 2 + 3 + 4 + 1 + 2 + 3 + 4 + 1 + 2 + 3 + 4 + 
d|---------------|---------------|---------------|---------------|
A|---------------|---------------|---------------|---------------|
F|---------------|---------------|---------------|---------------|
C|---------------|---------------|---------------|---------------|
G|7-----7-------7|------------5-8|7-----7-------7|---------------|
D|--0-0---0-0-0--|0-0-0-0-0-0----|--0-0---0-0-0--|0-0-0-0-0-0-0-0|
    x x   x x x   x x x x x x       x x   x x x   x x x x x x x x

  1 + 2 + 3 + 4 + 1 + 2 + 3 + 4 + 1 + 2 + 3 + 4 + 1 + 2 + 3 + 4 + 
d|---------------|---------------|---------------|---------------|
A|---------------|---------------|---------------|---------------|
F|---------------|---------------|---------------|---------------|
C|---------------|---------------|---------------|---------------|
G|7-----7-------7|------------5-8|7-----7-------7|--3-3-3-3-3-3-3|
D|--0-0---0-0-0--|0-0-0-0-0-0----|--0-0---0-0-0--|0-1-1-1-1-1-1-1|
    x x   x x x   x x x x x x       x x   x x x   x x x x x x x x

    repeat all


Repeat Pre-Verse
       Verse

Chorus
  1 + 2 + 3 + 4 + 1 + 2 + 3 + 4 + 1 + 2 + 3 + 4 + 1 + 2 + 3 + 4 + 
d|---------------|---------------|---------------|---------------|
A|---------------|---------------|---------------|---------------|
F|---------------|---------------|---------------|---------------|
C|---------------|---------------|---------------|---------------|
G|---------------|---------------|---------------|---------------|
D|0-------7------|--------5---7-8|7---5---0------|---------------|
          ~~~~~~~~~~~~~~~~    h h p

  1 + 2 + 3 + 4 + 1 + 2 + 3 + 4 + 1 + 2 + 3 + 4 + 1 + 2 + 3 + 4 + 
d|---------------|---------------|---------------|---------------|
A|---------------|---------------|---------------|---------------|
F|---------------|---------------|---------------|---------------|
C|---------------|---------------|---------------|---------------|
G|---------------|---------------|--------3------|---------------|
D|0-------7------|--------5---7-8|7---5---1------|---------------|
          ~~~~~~~~~~~~~~~~    h h p

    Repeat all


Post-Chorus
  1 + 2 + 3 + 4 + 1 + 2 + 3 + 4 + 1 + 2 + 3 + 4 + 1 + 2 + 3 + 4 + 
d|---------------|---------------|---------------|---------------|
A|---------------|---------------|---------------|---------------|
F|---------------|---------------|---------------|---------------|
C|9-----9-----9--|--9-----9---7-109-----9-----9--|---------------|
G|7-----7-----7--|--7-----7---5-8|7-----7-----7--|---------------|
D|--0-0---0-0---0|0---0-0---0----|--0-0---0-0---0|000-0-000-0-0--|
    x x   x x   x x   x x   x       x x   x x   x xxx x xxx x x

  1 + 2 + 3 + 4 + 1 + 2 + 3 + 4 + 
d|---------------|---------------|
A|---------------|---------------|
F|---------------|---------------|
C|9-----9-----9--|--9-----9---7-10
G|7-----7-----7--|--7-----7---5-8|
D|--0-0---0-0---0|0---0-0---0----|
    x x   x x   x x   x x   x     

  1 + 2 + 3 + 4 + 5 + 6 + 7 + 8 + 
d|-------------------------------|
A|-------------------------------|
F|-------------------------------|
C|9-----9-----9-----9-----9---10-|
G|7-----7-----7-----7-----7---7--|
D|-------------------------------|

Repeat Verse
       Chorus


Breakdown
  1 + 2 + 3 + 4 + 1 + 2 + 3 + 4 + 1 + 2 + 3 + 4 + 1 + 2 + 3 + 4 + 
d|---------------|---------------|---------------|---------------|
A|---------------|---------------|---------------|---------------|
F|---------------|---------------|---------------|---------------|
C|---------------|---------------|---------------|---------------|
G|3-333-3-333-33333-333-3-333-33333-333-3-333-33333-333-3-333-3333
D|1-111-1-111-11111-111-1-111-11111-111-1-111-11111-111-1-111-1111
  x xxx x xxx xxxxx xxx x xxx xxxxx xxx x xxx xxxxx xxx x xxx xxxx

  1 + 2 + 3 + 4 + 1 + 2 + 3 + 4 + 1 + 2 + 3 + 4 + 1 + 2 + 3 + 4 + 
d|---------------|---------------|---------------|---------------|
A|---------------|---------------|---------------|---------------|
F|---------------|---------------|---------------|---------------|
C|---------------|---------------|---------------|------------2--|
G|2-222-2-222-22222-222-2-222-22222-222-2-222-22222-222-2-222-2--|
D|0-000-0-000-00000-000-0-000-00000-000-0-000-00000-000-0-000-0--|
  x xxx x xxx xxxxx xxx x xxx xxxxx xxx x xxx xxxxx xxx x xxx x


Rhythm for solo

  1 + 2 + 3 + 4 + 1 + 2 + 3 + 4 + 1 + 2 + 3 + 4 + 1 + 2 + 3 + 4 + 
d|---------------|---------------|---------------|---------------|
A|---------------|---------------|---------------|---------------|
F|---------------|---------------|---------------|---------------|
C|---------------|---------------|---------------|---------------|
G|3-333-3-333-33333-333-3-333-33333-333-3-333-33333-333-3-333-3333
D|1-111-1-111-11111-111-1-111-11111-111-1-111-11111-111-1-111-1111
  x xxx x xxx xxxxx xxx x xxx xxxxx xxx x xxx xxxxx xxx x xxx xxxx

  1 + 2 + 3 + 4 + 1 + 2 + 3 + 4 + 1 + 2 + 3 + 4 + 1 + 2 + 3 + 4 + 
d|---------------|---------------|---------------|---------------|
A|---------------|---------------|---------------|---------------|
F|---------------|---------------|---------------|---------------|
C|---------------|---------------|---------------|---------------|
G|2-222-2-222-22222-222-2-222-22222-222-2-222-22222-222-2-222-2222
D|0-000-0-000-00000-000-0-000-00000-000-0-000-00000-000-0-000-0000
  x xxx x xxx xxxxx xxx x xxx xxxxx xxx x xxx xxxxx xxx x xxx xxxx

  1 + 2 + 3 + 4 + 1 + 2 + 3 + 4 + 1 + 2 + 3 + 4 + 1 + 2 + 3 + 4 + 
d|---------------|---------------|---------------|---------------|
A|---------------|---------------|---------------|---------------|
F|---------------|---------------|---------------|---------------|  3rd
C|---------------|----------0----|---------------|----------0----|
G|--------3-----3|--3-----3---3-2|--------3-----3|--3-----3---3-2|
D|1-111-1---1-1--|1---1-1--------|1-111-1---1-1--|1---1-1--------|
  x xxx x   x x   x   x x         x xxx x   x x   x   x x

  1 + 2 + 3 + 4 + 1 + 2 + 3 + 4 + 1 + 2 + 3 + 4 + 1 + 2 + 3 + 4 + 
d|---------------|---------------|---------------|---------------|
A|---------------|---------------|---------------|---------------|
F|---------------|---------------|---------------|---------------|
C|---------------|----------0----|---------------|----------0----|
G|--------2-----2|--2-----3---3-2|--------2-----2|--2-----3---3-2|
D|0-000-0---0-0--|0---0-0--------|0-000-0---0-0--|0---0-0--------|
  x xxx x   x x   x   x x         x xxx x   x x   x   x x

    repeat 3rd measure
  
  1 + 2 + 3 + 4 + 1 + 2 + 3 + 4 + 1 + 2 + 3 + 4 + 1 + 2 + 3 + 4 + 
d|---------------|---------------|---------------|---------------|
A|---------------|---------------|---------------|---------------|
F|---------------|---------------|---------------|---------------|
C|---------------|----------0----|---------------|---------------|
G|--------2-----2|--2-----3---3-2|--------2-----2|--2------------|
D|0-000-0---0-0--|0---0-0--------|0-000-0---0-0--|0---0-0-8-----1|
  x xxx x   x x   x   x x         x xxx x   x x   x   x x  \\\\\

Repeat Pre-Verse
       Verse
       Chorus


Outro

    Repeat Intro 2, 2 times
    Repeat Intro 2 + Harmony, 2 times

  1   +   2   +   3   +   4   +      
d|-------------------------------|
A|-------------------------------|    (slide down to open and then mute)
F|-------------------------------|
C|-------------------------------|
G|10--9--------------------------|
D|8---7--------------------------|
        \\\\\\\\\\\\\\\\\\x

************************************

| \   slide down
| h   hammer-on
| p   pull-off
| ~   vibrato
| x   Mute note
| b   Bend
| br  Bend release

************************************
 
 
Volbeat - Doc Holliday Tab :: indexed at Ultimate Guitar.
Doc Holliday tabs @ 911Tabs

Quick tip, so you can enjoy Doc Holliday Tab even more:

After the registration (which takes just 10 seconds, remember?) you will be able to use your profile - your very own piece of YourChords.com.

Show us your talent, perform Doc Holliday Tab!

Here you can post a video or audio performance. Tell me more ...
Where can we find your performance? Tell me more ...
Your comment:
Please, log in to post your performance.