Artists by letter: A B C D E F G H I J K L M N O P Q R S T U V W X Y Z 0-9

 
White Sky Acoustic Tab
https://www.youtube.com/watch?v=mS46tvELXnE

[Intro]

e|----------------------|----------------------|----------------------|----------------------|
B|------2------2------2-|------3------3------3-|------2------2------2-|------5------5------5-|
G|-(2)----(2)----(2)----|-(4)----(4)----(4)----|-(2)----(2)----(2)----|-(6)----(6)----(6)----|
D|----------------------|----------------------|----------------------|----------------------| x2
A|----------------------|----------------------|----------------------|----------------------|
E|----------------------|----------------------|----------------------|----------------------|

[Verse 1]

e|----------------------|----------------------|----------------------|----------------------|
B|------2------2------2-|------3------3------3-|------2------2------2-|------5------5------5-|
G|-(2)----(2)----(2)----|-(4)----(4)----(4)----|-(2)----(2)----(2)----|-(6)----(6)----(6)----|
D|----------------------|----------------------|----------------------|----------------------| x3
A|----------------------|----------------------|----------------------|----------------------|
E|----------------------|----------------------|----------------------|----------------------|

e|-5>-----------5>-----------|-7>-----------7>-----------|-9>------9>-------|-9>------9>-----|
B|----(5)----------(5)-------|----(7)----------(7)-------|----10------10----|----9------9----|
G|---------(6)----------(6)--|---------(7)----------(7)--|-------9-------9--|-------9-----9--|
D|---------------------------|---------------------------|------------------|----------------|
A|---------------------------|---------------------------|------------------|----------------|
E|---------------------------|---------------------------|------------------|----------------|

[Bridge]
             PM---|      PM---|      PM-----------|
e|-5-x--5-x-|-x-x-x-x-x-|-5-5-5-5-5-|-x-x-x-x-x---|
B|-5-x--5-x-|-7-7-7-7-7-|-5-5-5-5-5-|-9-9-9-9-9---|
G|-6-x--6-x-|-x-x-x-x-x-|-6-6-6-6-6-|-x-x-x-x-x---|
D|-7-x--7-x-|-4-4-4-4-4-|-7-7-7-7-7-|-6-6-6-6-6---|
A|-7-x--7-x-|-5-5-5-5-5-|-7-7-7-7-7-|-7-7-7-7-7---|
E|-5-s--5-s-|-x-x-x-x-x-|-5-5-5-5-5-|-x-x-x-x-x---|

  PM---|      PM---|      PM---|      PM------------|
e|-5-5-5-5-5-|-x-x-x-x-x-|-5-5-5-5-5-|-x-x-x-x-x----|
B|-5-5-5-5-5-|-7-7-7-7-7-|-5-5-5-5-5-|-9-9-9-9-9----|
G|-6-6-6-6-6-|-x-x-x-x-x-|-6-6-6-6-6-|-x-x-x-x-x----|
D|-7-7-7-7-7-|-4-4-4-4-4-|-7-7-7-7-7-|-6-6-6-6-6----| x2
A|-7-7-7-7-7-|-5-5-5-5-5-|-7-7-7-7-7-|-7-7-7-7-7----|
E|-5-5-5-5-5-|-x-x-x-x-x-|-5-5-5-5-5-|-x-x-x-x-x----|

  PM---|      PM---|      PM-----------------------|
e|-5-5-5-5-5-|-x-x-x-x-x-|-5-5-5-5-5-|-x-x-x-x-x---|
B|-5-5-5-5-5-|-7-7-7-7-7-|-5-5-5-5-5-|-9-9-9-9-9---|
G|-6-6-6-6-6-|-x-x-x-x-x-|-6-6-6-6-6-|-x-x-x-x-x---|
D|-7-7-7-7-7-|-4-4-4-4-4-|-7-7-7-7-7-|-6-6-6-6-6---|
A|-7-7-7-7-7-|-5-5-5-5-5-|-7-7-7-7-7-|-7-7-7-7-7---|
E|-5-5-5-5-5-|-x-x-x-x-x-|-5-5-5-5-5-|-x-x-x-x-x---|

[Verse 2]

e|----------------------|----------------------|----------------------|----------------------|
B|------2------2------2-|------3------3------3-|------2------2------2-|------5------5------5-|
G|-(2)----(2)----(2)----|-(4)----(4)----(4)----|-(2)----(2)----(2)----|-(6)----(6)----(6)----|
D|----------------------|----------------------|----------------------|----------------------| x2
A|----------------------|----------------------|----------------------|----------------------|
E|----------------------|----------------------|----------------------|----------------------|

e|------5------5------5-|------7------7------7-|------5------5------5------|------4------4------4------|
B|----------------------|----------------------|---------------------------|---------------------------|
G|-(6)----(6)----(6)----|-(7)----(7)----(7)----|-(6)----(6)----(6)----(6)--|-(6)----(6)----(6)----(6)--|
D|----------------------|----------------------|---------------------------|---------------------------|
A|----------------------|----------------------|---------------------------|---------------------------|
E|----------------------|----------------------|---------------------------|---------------------------|

e|-5>-----------5>-----------|-7>-----------7>-----------|-9>------9>-------|-9>------9>-----|
B|----(5)----------(5)-------|----(7)----------(7)-------|----10------10----|----9------9----|
G|---------(6)----------(6)--|---------(7)----------(7)--|-------9-------9--|-------9-----9--|
D|---------------------------|---------------------------|------------------|----------------|
A|---------------------------|---------------------------|------------------|----------------|
E|---------------------------|---------------------------|------------------|----------------|

[Pre-chorus]

e|--x--x--|--x--x--|--x--x--|--x--x--|
B|--x--x--|--x--x--|--x--x--|--x--x--|
G|--6--6--|--x--x--|--6--6--|--x--x--|
D|--7--7--|--5--5--|--7--7--|--6--6--| x2
A|--7--7--|--4--4--|--7--7--|--7--7--|
E|--5--5--|--x--x--|--5--5--|--x--x--|

[Chorus]

e|--5--5--|--x--x--|--5--5--|-x-x-x-x-x-x-|-5-5-5-5-5-5-|-x-x-x-x-x-x-|-5-5-5-5-5-5-|-x-x-x-x-x-x-|
B|--5--5--|--7--7--|--5--5--|-9-9-9-9-9-9-|-5-5-5-5-5-5-|-7-7-7-7-7-7-|-5-5-5-5-5-5-|-9-9-9-9-9-9-|
G|--6--6--|--x--x--|--6--6--|-x-x-x-x-x-x-|-6-6-6-6-6-6-|-x-x-x-x-x-x-|-6-6-6-6-6-6-|-x-x-x-x-x-x-|
D|--7--7--|--5--5--|--7--7--|-6-6-6-6-6-6-|-7-7-7-7-7-7-|-5-5-5-5-5-5-|-7-7-7-7-7-7-|-6-6-6-6-6-6-|
A|--7--7--|--4--4--|--7--7--|-7-7-7-7-7-7-|-7-7-7-7-7-7-|-4-4-4-4-4-4-|-7-7-7-7-7-7-|-7-7-7-7-7-7-|
E|--5--5--|--x--x--|--5--5--|-x-x-x-x-x-x-|-5-5-5-5-5-5-|-x-x-x-x-x-x-|-5-5-5-5-5-5-|-x-x-x-x-x-x-|

e|-5-5-5-5-5-5-|-7-7-7-7-7-7-|-5-5-5-5-5-5-|-9--9--9--9--9--9--|
B|-5-5-5-5-5-5-|-7-7-7-7-7-7-|-5-5-5-5-5-5-|-9--9--9--9--9--9--|
G|-6-6-6-6-6-6-|-7-7-7-7-7-7-|-6-6-6-6-6-6-|-9--9--9--9--9--9--|
D|-7-7-7-7-7-7-|-9-9-9-9-9-9-|-7-7-7-7-7-7-|-11-11-11-11-11-11-| x2
A|-7-7-7-7-7-7-|-9-9-9-9-9-9-|-7-7-7-7-7-7-|-11-11-11-11-11-11-|
E|-5-5-5-5-5-5-|-7-7-7-7-7-7-|-5-5-5-5-5-5-|-9--9--9--9--9--9--|

[Bridge]

  PM---|      PM---|      PM------------------------|
e|-5-5-5-5-5-|-x-x-x-x-x-|-5-5-5-5-5-|-x-x-x-x-x----|
B|-5-5-5-5-5-|-x-x-x-x-x-|-5-5-5-5-5-|-x-x-x-x-x----|
G|-6-6-6-6-6-|-x-x-x-x-x-|-6-6-6-6-6-|-x-x-x-x-x----|
D|-7-7-7-7-7-|-4-4-4-4-4-|-7-7-7-7-7-|-6-6-6-6-6----| x2
A|-7-7-7-7-7-|-5-5-5-5-5-|-7-7-7-7-7-|-7-7-7-7-7----|
E|-5-5-5-5-5-|-x-x-x-x-x-|-5-5-5-5-5-|-x-x-x-x-x----|

[Verse 3]

  PM---|      PM---|      PM---|      PM------------|
e|-5-5-5-5-5-|-x-x-x-x-x-|-5-5-5-5-5-|-x-x-x-x-x----|
B|-5-5-5-5-5-|-7-7-7-7-7-|-5-5-5-5-5-|-9-9-9-9-9----|
G|-6-6-6-6-6-|-x-x-x-x-x-|-6-6-6-6-6-|-x-x-x-x-x----|
D|-7-7-7-7-7-|-4-4-4-4-4-|-7-7-7-7-7-|-6-6-6-6-6----| x4
A|-7-7-7-7-7-|-5-5-5-5-5-|-7-7-7-7-7-|-7-7-7-7-7----|
E|-5-5-5-5-5-|-x-x-x-x-x-|-5-5-5-5-5-|-x-x-x-x-x----|

[Pre-chorus]

e|--x--x--|--x--x--|--x--x--|--x--x--|
B|--x--x--|--x--x--|--x--x--|--x--x--|
G|--6--6--|--x--x--|--6--6--|--x--x--|
D|--7--7--|--5--5--|--7--7--|--6--6--| x2
A|--7--7--|--4--4--|--7--7--|--7--7--|
E|--5--5--|--x--x--|--5--5--|--x--x--|

[Chorus]

e|-5-5-5-5-5-5-|-x-x-x-x-x-x-|-5-5-5-5-5-5-|-x-x-x-x-x-x-|
B|-5-5-5-5-5-5-|-7-7-7-7-7-7-|-5-5-5-5-5-5-|-9-9-9-9-9-9-|
G|-6-6-6-6-6-6-|-x-x-x-x-x-x-|-6-6-6-6-6-6-|-x-x-x-x-x-x-|
D|-7-7-7-7-7-7-|-5-5-5-5-5-5-|-7-7-7-7-7-7-|-6-6-6-6-6-6-| x2
A|-7-7-7-7-7-7-|-4-4-4-4-4-4-|-7-7-7-7-7-7-|-7-7-7-7-7-7-|
E|-5-5-5-5-5-5-|-x-x-x-x-x-x-|-5-5-5-5-5-5-|-x-x-x-x-x-x-|

e|-5-5-5-5-5-5-|-7-7-7-7-7-7-|-5-5-5-5-5-5-|-9--9--9--9--9--9--|
B|-5-5-5-5-5-5-|-7-7-7-7-7-7-|-5-5-5-5-5-5-|-9--9--9--9--9--9--|
G|-6-6-6-6-6-6-|-7-7-7-7-7-7-|-6-6-6-6-6-6-|-9--9--9--9--9--9--|
D|-7-7-7-7-7-7-|-9-9-9-9-9-9-|-7-7-7-7-7-7-|-11-11-11-11-11-11-| x2
A|-7-7-7-7-7-7-|-9-9-9-9-9-9-|-7-7-7-7-7-7-|-11-11-11-11-11-11-|
E|-5-5-5-5-5-5-|-7-7-7-7-7-7-|-5-5-5-5-5-5-|-9--9--9--9--9--9--|

[Verse 4]

e|--------5>---4>---2>---------------------------------4>-------|
B|---2>------------------5>---3>---2>---5>---2>---3>--------3>--|
G|-2----2----2----2----2----2----2----2----2----2----2----2-----|
D|--------------------------------------------------------------| x4
A|--------------------------------------------------------------|
E|--------------------------------------------------------------|

[Pre-chorus]

e|--x--x--|--x--x--|--x--x--|--x--x--|
B|--x--x--|--x--x--|--x--x--|--x--x--|
G|--6--6--|--x--x--|--6--6--|--x--x--|
D|--7--7--|--5--5--|--7--7--|--6--6--| x2
A|--7--7--|--4--4--|--7--7--|--7--7--|
E|--5--5--|--x--x--|--5--5--|--x--x--|

[Chorus]

e|--5--5--|--x--x--|--5--5--|--x--x--|-5-5-5-5-5-5-|-x-x-x-x-x-x-|-5-5-5-5-5-5-|-9--9--9--9--9--9--|
B|--5--5--|--7--7--|--5--5--|--9--9--|-5-5-5-5-5-5-|-7-7-7-7-7-7-|-5-5-5-5-5-5-|-9--9--9--9--9--9--|
G|--6--6--|--x--x--|--6--6--|--x--x--|-6-6-6-6-6-6-|-x-x-x-x-x-x-|-6-6-6-6-6-6-|-9--9--9--9--9--9--|
D|--7--7--|--5--5--|--7--7--|--6--6--|-7-7-7-7-7-7-|-5-5-5-5-5-5-|-7-7-7-7-7-7-|-11-11-11-11-11-11-|
A|--7--7--|--4--4--|--7--7--|--7--7--|-7-7-7-7-7-7-|-4-4-4-4-4-4-|-7-7-7-7-7-7-|-11-11-11-11-11-11-|
E|--5--5--|--x--x--|--5--5--|--x--x--|-5-5-5-5-5-5-|-x-x-x-x-x-x-|-5-5-5-5-5-5-|-9--9--9--9--9--9--|

e|-5-5-5-5-5-5-|-7-7-7-7-7-7-|-5-5-5-5-5-5-|-9--9--9--9--9--9--|
B|-5-5-5-5-5-5-|-7-7-7-7-7-7-|-5-5-5-5-5-5-|-9--9--9--9--9--9--|
G|-6-6-6-6-6-6-|-7-7-7-7-7-7-|-6-6-6-6-6-6-|-9--9--9--9--9--9--|
D|-7-7-7-7-7-7-|-9-9-9-9-9-9-|-7-7-7-7-7-7-|-11-11-11-11-11-11-| x6
A|-7-7-7-7-7-7-|-9-9-9-9-9-9-|-7-7-7-7-7-7-|-11-11-11-11-11-11-|
E|-5-5-5-5-5-5-|-7-7-7-7-7-7-|-5-5-5-5-5-5-|-9--9--9--9--9--9--|

************************************

| x   Dead note
|(n) Ghost note
| >   Accented note
| s   Slap
| PM  Palm mute

************************************
 
 
Vampire Weekend - White Sky Acoustic Tab :: indexed at Ultimate Guitar.
White Sky Acoustic tabs @ 911Tabs

About the artist behind White Sky Acoustic Tab:

Vampire Weekend is an indie rock band from New York City, formed in 2006 and signed to XL Recordings.

Indexed at Wikipedia.

Show us your talent, perform White Sky Acoustic Tab!

Here you can post a video or audio performance. Tell me more ...
Where can we find your performance? Tell me more ...
Your comment:
Please, log in to post your performance.