Artists by letter: A B C D E F G H I J K L M N O P Q R S T U V W X Y Z 0-9

 
Horchata Tab
"Horchata" by Vampire Weekend
acoustic guitar part;

watch this video of Ezra playing it
 https://www.youtube.com/watch?v=3J6_U_7ivRU&spfreload=10

i have plenty of work to do but while I figure it out ill post the leading parts i have so far.


this part

E|---------------11----9----11-9----------------------------------------------------------
B|--12---------------------------12---11---9---11-9-7-----12------------------------------
G|------9--11------------------------------------------------8-9----8---------11-9-8------
D|--------------------------------------------------------------------11-9--------------11
A|----------------------------------------------------------------------------------------
E|----------------------------------------------------------------------------------------

E|---------------11----9----11-9----------------------------------------------------------
B|--12---------------------------12---11---9---11-9-7-----12------------------------------
G|------9--11------------------------------------------------8-9----8---------------------
D|--------------------------------------------------------------------11-9----11-8-9------
A|----------------------------------------------------------------------------------------
E|----------------------------------------------------------------------------------------

and this part (not sure on the 8th fret part, sounds off)

E|--11-----11--11--11--9--8--9----9----9--11----11--
B|--11-----11--11--11--9--8--9----9----9--11----12--
G|--11-----11--11--11--9--8--9----9----9--11----11--
D|--------------------------------------------------
A|--------------------------------------------------
E|--------------------------------------------------\

feel free to listen closely on the video and help out on this tab
 
 
Vampire Weekend - Horchata Tab :: indexed at Ultimate Guitar.
Horchata tabs @ 911Tabs

About the artist behind Horchata Tab:

Vampire Weekend is an indie rock band from New York City, formed in 2006 and signed to XL Recordings.

Indexed at Wikipedia.

Show us your talent, perform Horchata Tab!

Here you can post a video or audio performance. Tell me more ...
Where can we find your performance? Tell me more ...
Your comment:
Please, log in to post your performance.