Artists by letter: A B C D E F G H I J K L M N O P Q R S T U V W X Y Z 0-9

 
Finger Back Tab
-------------------------------------------------------------------------------
                             Finger Back - Vampire Weekend
-------------------------------------------------------------------------------
Tabbed by: Bayley Navarro

Tuning: Standard

No tabs at all for this song, so I learnt the song from videos (and my ears)
and made them, probably not 100% correct, but hey, they're something.

Drums start for 4 Bars

Verse

e|---------------------------------------------------------------------------|
B|---------------------------------------------------------------------------|
G|--------------7---7-7-7-7-7--7--7-7-7-7-7--7--9--9--9--9--9---9------------|
D|--------------7---7-7-7-7-7--7--7-7-7-7-7--7--9--9--9--9--9---9------------| Repeats until Chorus
A|--------------8---8-8-8-8-8--8--8-8-8-8-8--8--10-10-10-10-10--10-----------|
E|-8-8-8-8-8------------------------------------10-10-10-10-10--10-----------|

Chorus (All downstrokes if possible, and not just the single string, best to hit the E string as well)

e|-----------------------------------------------------------------------------------|
B|-----------------------------------------------------------------------------------|
G|-----------------------------------------------------------------------------------|
D|-----------------------------------------------------------------------------------|
A|-8-8-8-8-8-8-8-8-----------------8-8-8-8-8-8-8-8-----------------------------------|
E|-----------------8-8-8-8-8-8-8-8-----------------8-8-8-8-8-8-8-8-------------------|

e|-----------------------------------------------------------------------------------|
B|-----------------------------------------------------------------------------------|
G|-----------------------------------------------------------------------------------|
D|-----------------------------------------------------------------------------------| Amount of times played 
A|-8-8-8-8-8-8-8-8-----------------10-10-10-10-10-10-10-10-10-10-10-10-10-10-10-10---| differs
E|-----------------8-8-8-8-8-8-8-8-10-10-10-10-10-10-10-10-10-10-10-10-10-10-10-10---|


Alternatively, you can play power chords or the same shapes as in the verse.


During the Spoken word part, variations on C can be played if you like. 


After the spoken word part, I'm not even sure if it's even the guitar is played, 
but towards the end it can be:

e|---------------------------------------------------------------------------|
B|---------------------------------------------------------------------------|
G|---------------------------------------------------------------------------|  Until it finishes
D|---------------------------------------------------------------------------|
A|--10-10-10-10-10-10-10-10-10-10-10-10-10-10-10-10--------------------------|
E|---------------------------------------------------------------------------|


Leave feedback if it's good. Or crap, I don't mind.


 
 
Vampire Weekend - Finger Back Tab :: indexed at Ultimate Guitar.
Finger Back tabs @ 911Tabs
People who played Vampire Weekend - Finger Back Tab also played these songs by Vampire Weekend:
Oxford Comma Tab, Cape Cod Kwassa Kwassa Tab, Mansard Roof Chords, A-punk Acoustic Tab, A-punk Tab, M79 Chords, Walcott Chords, Campus Chords

About the artist behind Finger Back Tab:

Vampire Weekend is an indie rock band from New York City, formed in 2006 and signed to XL Recordings.

Indexed at Wikipedia.

Show us your talent, perform Finger Back Tab!

Here you can post a video or audio performance. Tell me more ...
Where can we find your performance? Tell me more ...
Your comment:
Please, log in to post your performance.