Artists by letter: A B C D E F G H I J K L M N O P Q R S T U V W X Y Z 0-9

 
Blaze Of Glory Tab
Blaze of glory
Bon Jovi
Tabbed by Steini


  Pre-Intro                           Intro: (2x)
e -10-8------------------------------------------------------------------------------------|
B --------10/8------------------------------------13-13/15---------------------------------|
G -------------10-7-------------------12/14-14-14----------14----10/12-12-12---9-9/10--7---|
D -------------------10-7------------------------------------------------------------------|
A ------------------------8-5--------------------------------------------------------------|
E -----------------------------------------------------------------------------------------|

e ---------------------------------------------------------------------|
B ---------------------------------------------------------------------|
G ---------------------------------------------------------------------|
D ---------3--------------------3-------------------3------------------|
A ---3-5-----5-3-5--------3-5-----5-3-5-------3-5-----5-3-5-------3-5--|
E -5--------------------5-------------------5-------------------5------|

     (Dm)                                      (C)
1. I wake up in the morning              And I raise my weary head
3. When you're brought into this world   They say you're born in sin
6. You ask about my consience            And I offer you my soul
        (G)                                  (Dm)
I got an old coat for a pillow        And the earth was last night's bed
Well at least they gave me something  I didn't have to steal or have to win
You ask If I'll grow to be a wise man   Well I ask if I'll grow old
   F                                        C
I don't know where I'm going          Only God knows where I've been
Well they tell me that I'm wanted     Yeah I'm a wanted man
You ask me if I known love         And what it's like to sing songs in the rain
       G                                          Dm
I'm a devil on the run     A six gun lover      A candle in the wind
I'm a colt in your stable  I'm what Cain was to Abel  Mister catch me if you can
Well,I've seen love come   And I've seen it shot down   I've seen it die in vain

2. Intro x2

              G                   D              G                 D
4. I'm going down in a blaze of glory   Take me now but know the truth
7. Shot down in a blaze of glory   Take me now but know the truth
12. Shot down in a blaze of glory  Take me now but know the truth
13.                                       I'm a young gun
          G                   D             C
I'm going out in a blaze of glory   Lord I never drew first
'Cause I'm going down in a blaze of glory     Lord I never drew first
I'm going out in a blaze of glory     Lord I never drew first
         Yeah                           Oh Lord
                               G                             D
But I drew first blood    I'm no one's son    Call me young gun
But I drew first blood    I'm the devil's son    Call me young gun
But I drew first blood    and I'm no one's son   Call me young gun
                          Oh Lord
5. Intro x1
8. Intro x2
9. Solo  (4x acoustic)        10. Intro x2

          Dm                            C                                G
11. Each night I go to bed  I pray the Lord my soul to keep  No I ain't looking for
                      Dm                            F
forgiveness    But before I'm six foot deep    Lord, I got to ask a favor
          C                                     G
And I'll hope you'll understand    'Cause I've lived life to the fullest
           Dm                   G                               Dm
Let the boy  die like a man   Staring down the bullet   Let me make my final stand

14. Intro x2

 
 
Bon Jovi - Blaze Of Glory Tab :: indexed at Ultimate Guitar.
Blaze Of Glory tabs @ 911Tabs

About the artist behind Blaze Of Glory Tab:

Jon Bon Jovi (born John Francis Bongiovi, Jr. on March 2, 1962) is an American musician, songwriter and actor. As lead singer and founder of the rock band Bon Jovi, he has sold over 120 million albums worldwide.[1] He is also the owner of an Arena Football League team, the Philadelphia Soul.

Indexed at Wikipedia.

Show us your talent, perform Blaze Of Glory Tab!

Here you can post a video or audio performance. Tell me more ...
Where can we find your performance? Tell me more ...
Your comment:
Please, log in to post your performance.