Artists by letter: A B C D E F G H I J K L M N O P Q R S T U V W X Y Z 0-9

 
When Im Sixty Four Tab
------------------------------------------------------------------------
  THE BEATLES - WHEN I'M SIXTY FOUR (Lennon/McCartney) From SGT.PEPPER'S
                LONELY HEARTS CLUB BAND. Released 1st June 1967.
------------------------------------------------------------------------
  Tabbed by:PJVillanueva

Use a capo on the first fret.

C
e|------ ------ ------ ------|------ ------ ------ ------|
B|---------------------------|-----------1------0--1---3-|
G|-----------0---------------|0---2--0---0---------------|
D|2---1--2-------------2-----|2--------------------2-----|
A|---------------------------|---------------------------|
E|---------------------------|---------------------------|

F6            G          C
e|0----- ------ ------ ------|------ ------ ------ ------|
B|1---3--1------1---3------1-|---------------------------|
G|2----------2--0------------|---------------------------|
D|------------------3------2-|---------------------------|
A|---------------------------|---------------------------|
E|---------------------------|---------------------------|

e|------ ------ ------ ------|------ ------ ------ ------|
B|---------------------------|---------------------------|
G|0--------------------------|---------------------------|
D|2--------------------------|---------------------------|
A|---------------------------|---------------------------|
E|---------------------------|---------------------------|

C
e|------ ------ ------ ------|------ ------ ------ ------|
B|5--------------------------|---------------------------|
G|---------------------------|---------------------------|
D|5--------------------------|---------------------------|
A|---------------------------|---------------------------|
E|---------------------------|---------------------------|
  When I get older            losing my hair,

G
e|------ ------ ------ ------|------ ------ 7----- ------|
B|---------------------------|-------8---10-----10-8-----|
G|---------------------------|7--------------------------|
D|---------------------------|9--------------------------|
A|---------------------------|---------------------------|
E|---------------------------|---------------------------|
  Many          years  from now.

e|------ ------ ------ ------|------ ------ ------ ------|
B|---------------------------|---------------------------|
G|7--------------------------|---------------------------|
D|9--------------------------|---------------------------|
A|---------------------------|---------------------------|
E|---------------------------|---------------------------|
 Will you still be sending me a valentine

C
e|------ ------ ------ ------|------ ------ ------ ------|
B|---------------------------|---------------------------|
G|---------------------------|---------------------------|
D|---------------------------|---------------------------|
A|10-------------------------|---------------------------|
E|---------------------------|---------------------------|
  Birthday      greetings     bottle of wine.

e|------ ------ ------ ------|------ ------ ------ ------|
B|5--------------------------|---------------------------|
G|---------------------------|---------------------------|
D|5--------------------------|---------------------------|
A|---------------------------|---------------------------|
E|---------------------------|---------------------------|
  If I'd been out      till  quarter to three

C7                          F
e|------ ------ ------ ------|------ ------ ------ ------|
B|8--------------------------|6--------------------------|
G|---------------------------|---------------------------|
D|8--------------------------|7--------------------------|
A|---------------------------|---------------------------|
E|---------------------------|---------------------------|
  Would you     lock   the door,

F             Fm            C             A
e|5----- 5----- 4----- 4-----|3----- 3----- 5----- 5-----|
B|---------------------------|---------------------------|
G|5------5------5------5-----|5------5------6------6-----|
D|---------------------------|---------------------------|
A|---------------------------|---------------------------|
E|---------------------------|---------------------------|
  Will you still need me,     will you still feed me,

D             G7            C
e|5----- 5----- 3----- 3-----|3----- 3----- ------ ------|
B|---------------------------|---------------------------|
G|7------7------4------4-----|5------5-------------------|
D|---------------------------|---------------------2-----|
A|---------------------------|--------------3---3----3---|
E|---------------------------|----------------3--------3-|
  When I'm      sixty         four.

Am
e|------ ------ ------ ------|------ ------ ------ ------|
B|---------------------------|---------------------------|
G|---------------------------|---------------------------|
D|---------------------------|---------------------------|
A|0--------------------------|---------------------------|
E|0--------------------------|---------------------------|

e|12---- ------ 10---- ------|-8---- ------ ------ ------|
B|13------------12-----------|10------------12-----10----|
G|---------------------------|---------------------------|
D|---------------------------|--------------12-----10----|
A|---------------------------|---------------------------|
E|---------------------------|---------------------------|
  
e|0----- 0----- 0----- 0-----|0----- 0----- 0----- 0-----|
B|1------1------1------1-----|1------1------1------1-----|
G|2------2------2------2-----|2------2------2------2-----|
D|2------2------2------2-----|2------2------2------2-----|
A|---------------------------|---------------------------|
E|---------------------------|---------------------------|

G                           Am
e|------ ------ ------ ------|------ ------ ------ ------|
B|8--------------------------|---------------------------|
G|---------------7-----------|9--------------------------|
D|9--------------------------|7--------------------------|
A|--------------10-----------|---------------------------|
E|---------------------------|---------------------------|

e|------ ------ ------ ------|------ ------ ------ ------|
B|0------0------0------0-----|---------------------1---0-|
G|0------0------0------0-----|---------------------2---1-|
D|0------0------0------0-----|----2------2------2--2---2-|
A|---------------------------|0------0------0------0-----|
E|3------3------3------3-----|---------------------------|



e|0----- 0----- 0----- 0-----|0----- 0----- 0----- 0-----|
B|1------1------1------1-----|1------1------1------1-----|
G|2------2------2------2-----|2------2------2------2-----|
D|----2------2------2------2-|----2------2------2------2-|
A|0------0------0------0-----|0------0------0------0-----|
E|---------------------------|---------------------------|
  You'll        be            older

E
e|------ 4--4-- 4----- 4-----|---4-- 4--4-- 4----- 4-----|
B|-------5--5---5------5-----|---5---5--5---5------5-----|
G|1------4--4---4------4-----|---4---4--4---4------4-----|
D|2--------------------------|---------------------------|
A|2--------------------------|---------------------------|
E|0--------------------------|0--------------------------|
  too,

Am
e|0----- 0----- 0----- 0-----|0----- 0----- 0----- 0-----|
B|1------1------1------1-----|1------1------1------1-----|
G|2------2------2------2-----|2------2------2------2-----|
D|----2------2------2------2-|----2------2------2------2-|
A|0------0------0------0-----|0------0------0------0-----|
E|---------------------------|---------------------------|
                              And           if     you      
e|------ ------ ------ ------|------ ------ ------ ------|
B|10------------8------------|---------------------------|
G|---------------------------|-9-------------------------|
D|10------------9------------|10-------------------------|
A|---------------------------|---------------------------|
E|---------------------------|---------------------------|

Dm                                               C
e|1----- 1----- 1----- 1-----|1----- 1----- 1----- 0-----|
B|3------3------3------3-----|3------3------3------1-----|
G|2------2------2------2-----|2------2------2------0-----|
D|0------0------0------0-----|0------0------0------2-----|
A|---------------------------|---------------------------|
E|---------------------------|---------------------------|
  say           the    word, 
e|------ ------ ------ ------|------ ------ ------ ------|
B|---------------------------|---------------------------|
G|7--------------------------|---------------------------|
D|---------------------------|7--------------------------|
A|8--------------------------|8--------------------------|
E|---------------------------|---------------------------|

F                           G
e|5----- 5----- 5----- 5-----|7----- 7----- 7----- 7-----|
B|6------6------6------6-----|8------8------8------8-----|
G|----5------5------5------5-|----7------7------7------7-|
D|---------------------------|---------------------------|
A|---------------------------|---------------------------|
E|---------------------------|---------------------------|
  I             could         stay          with          
e|------ ------ ------ ------|------ ------ ------ ------|
B|10-------------------------|8--------------------------|
G|---------------------------|---------------------------|
D|10-------------------------|8--------------------------|
A|---------------------------|---------------------------|
E|---------------------------|---------------------------|

C                           G
e|0----- 0----- 0----- 0-----|3----- ------ ------ ------|
B|1------1------1------1-----|---------------------------|
G|----0------0------0------0-|0--------------------------|
D|---------------------------|---------------------------|
A|---------------------------|---------------------------|
E|---------------------------|---------------------------|
  you.
e|------ ------ ------ ------|------ ------ ------ ------|
B|----5--6---8--6---5--------|8--------------------------|
G|---------------------7---5-|--------------5------5-----|
D|----2--3---5--3---2--------|5--------------------------|
A|---------------------5---3-|--------------3------3-----|
E|---------------------------|---------------------------|

e|3----- ------ ------ ------|
B|------------------6--------|
G|0----------4--7------------|
D|-------5----------3--------|
A|-----------2--5------------|
E|-------3-------------------|

C
e|------ ------ ------ ------|------ ------ ------ ------|
B|5--------------------------|---------------------------|
G|---------------------------|---------------------------|
D|5--------------------------|---------------------------|
A|---------------------------|---------------------------|
E|---------------------------|---------------------------|
  I could be handy,           mending a fuse

G
e|------ ------ ------ ------|------ ------ 7----- ------|
B|---------------------------|-------8---10-----10-8-----|
G|---------------------------|7--------------------------|
D|---------------------------|9--------------------------|
A|---------------------------|---------------------------|
E|---------------------------|---------------------------|
  When your     lights have gone.

G7
e|------ ------ ------ ------|------ ------ ------ ------|
B|---------------------------|---------------------------|
G|7--------------------------|---------------------------|
D|9--------------------------|---------------------------|
A|---------------------------|---------------------------|
E|---------------------------|---------------------------|
  You can knit a sweater by the fireside
e|13---- 13---- 13---- 13----|13---- 13---- 13---- 13--1514
B|12-----12-----12-----12----|12-----12-----12-----12----|
G|12-----12-----12-----12----|12-----12-----12-----12----|
D|---------------------------|---------------------------|
A|---------------------------|---------------------------|
E|---------------------------|---------------------------|

C
e|------ ------ ------ ------|8----- ------ ------ ------|
B|---------------------------|----8--10--8---------------|
G|---------------------------|---------9-----------------|
D|---------------------------|---------------------------|
A|10-------------------------|---------------------------|
E|---------------------------|---------------------------|
  Sunday mornings             go for a ride,
e13----- ------ ------ ------|------ ------ ------ ------|
B|12-------------------------|---------------------------|
G|-12------------------------|---------------------------|
D|---------------------------|---------------------------|
A|---------------------------|---------------------------|
E|---------------------------|---------------------------|



e|------ ------ ------ ------|------ ------ ------ ------|
B|5--------------------------|---------------------------|
G|---------------------------|---------------------------|
D|5--------------------------|---------------------------|
A|---------------------------|---------------------------|
E|---------------------------|---------------------------|
  Doing the garden,           digging the weeds,

C7                          F
e|------ ------ ------ ------|------ ------ ------ ------|
B|8--------------------------|6--------------------------|
G|---------------------------|---------------------------|
D|8--------------------------|7--------------------------|
A|---------------------------|---------------------------|
E|---------------------------|---------------------------|
  Who could     ask    for more.

F             Fm            C             A
e|5----- 5----- 4----- 4-----|3----- 3----- 5----- 5-----|
B|---------------------------|---------------------------|
G|5------5------5------5-----|5------5------6------6-----|
D|---------------------------|---------------------------|
A|---------------------------|---------------------------|
E|---------------------------|---------------------------|
  Will you still need me,     will you still feed me,

D             G7            C
e|5----- 5----- 3----- 3-----|3----- ------ ------ ------|
B|---------------------------|---------------------------|
G|7------7------4------4-----|5--------------------------|
D|---------------------------|---------------------2-----|
A|---------------------------|--------------3---3----3---|
E|---------------------------|----------------3--------3-|
  When I'm      sixty         four.

Am
e|------ ------ ------ ------|------ ------ ------ ------|
B|---------------------------|---------------------------|
G|---------------------------|---------------------------|
D|---------------------------|---------------------------|
A|0--------------------------|---------------------------|
E|0--------------------------|---------------------------|

e|12---- ------ 10---- ------|-8---- ------ ------ ------|
B|13------------12-----------|10------------12-----10----|
G|---------------------------|---------------------------|
D|---------------------------|--------------12-----10----|
A|---------------------------|---------------------------|
E|---------------------------|---------------------------|
  Every  summer we can rent a cottage in the Isle  of

e|0----- 0----- 0----- 0-----|0----- 0----- 0----- 0-----|
B|1------1------1------1-----|1------1------1------1-----|
G|2------2------2------2-----|2------2------2------2-----|
D|2------2------2------2-----|2------2------2------2-----|
A|---------------------------|---------------------------|
E|---------------------------|---------------------------|

G                           Am
e|------ ------ ------ ------|------ ------ ------ ------|
B|8--------------------------|---------------------------|
G|---------------7-----------|9--------------------------|
D|9--------------------------|7--------------------------|
A|--------------10-----------|---------------------------|
E|---------------------------|---------------------------|
   Wight, if it's not  too  dear
e|------ ------ ------ ------|------ ------ ------ ------|
B|0------0------0------0-----|---------------------1---0-|
G|0------0------0------0-----|---------------------2---1-|
D|0------0------0------0-----|----2------2------2--2---2-|
A|---------------------------|0------0------0------0-----|
E|3------3------3------3-----|---------------------------|

e|0----- 0----- 0----- 0-----|0----- 0----- 0----- 0-----|
B|1------1------1------1-----|1------1------1------1-----|
G|2------2------2------2-----|2------2------2------2-----|
D|----2------2------2------2-|----2------2------2------2-|
A|0------0------0------0-----|0------0------0------0-----|
E|---------------------------|---------------------------|
  We            shall         scrimp        and

E
e|------ 4----- 4----- 4-----|------ 4--4-- 4----- 4-----|
B|-------5------5------5-----|-------5--5---5------5-----|
G|1------4------4------4-----|-------4--4---4------4-----|
D|2--------------------------|---------------------------|
A|2--------------------------|---------------------------|
E|0--------------------------|0--------------------------|
  save

Am
e|0----- 0----- 0----- 0-----|0----- 0----- 0----- 0-----|
B|1------1------1------1-----|1------1------1------1-----|
G|2------2------2------2-----|2------2------2------2-----|
D|----2------2------2------2-|----2------2------2------2-|
A|0------0------0------0-----|0------0------0------0-----|
E|---------------------------|---------------------------|
                              Grandchildren 
e|------ ------ ------ ------|------ ------ ------ ------|
B|10------------8------------|---------------------------|
G|---------------------------|-9-------------------------|
D|10------------9------------|10-------------------------|
A|---------------------------|---------------------------|
E|---------------------------|---------------------------|

Dm                                 
e|1----- 1----- 1----- 1-----|1----- ----3- ----1- ------|
B|3------3------3------3-----|3----------5------3--------|
G|2------2------2------2-----|2------------------------3-|
D|0------0------0------0-----|0------0------0------0-----|
A|---------------------------|---------------------------|
E|---------------------------|---------------------------|
  on            your   knee
e|------ ------ ------ ------|------ ------ ------ ------|
B|---------------------------|---------------------------|
G|7--------------------------|---------------------------|
D|---------------------------|7--------------------------|
A|8--------------------------|8--------------------------|
E|---------------------------|---------------------------|

e|------ ------ ------ ------|------ ------ ------ ------|
B|---------------------------|--------------6------8-----|
G|---------------------------|---------------------------|
D|---------------------------|--------------3------5-----|
A|---------------------------|---------------------------|
E|---------------------------|---------------------------|

F                           G
e|5----- 5----- 5----- 5-----|7----- 7----- 7----- 7-----|
B|6------6------6------6-----|8------8------8------8-----|
G|----5------5------5------5-|----7------7------7------7-|
D|---------------------------|---------------------------|
A|---------------------------|---------------------------|
E|---------------------------|---------------------------|
  Vera                        Chuck         and    
e|------ ------ ------ ------|------ ------ ------ ------|
B|10-------------------------|8--------------------------|
G|---------------------------|---------------------------|
D|10-------------------------|8--------------------------|
A|---------------------------|---------------------------|
E|---------------------------|---------------------------|

e|------ ------ ------ ------|------ ------ ------ ------|
B|10-------------------------|--------6-----8------------|
G|---------------------------|---------------------------|
D|-7-------------------------|--------3-----5------------|
A|---------------------------|---------------------------|
E|---------------------------|---------------------------|

e|------ ------ 13---- ------|------ 15---- ------ ------|
B|---------------------------|--15-----------------------|
G|---------------------------|---------------------------|
D|---------------------------|---------------------------|
A|---------------------------|---------------------------|
E|---------------------------|---------------------------|

C                           G       
e|0----- 0----- 0----- 0-----|------ 3----- ------ ------|
B|1------1------1------1-----|---------------------------|
G|----0------0------0------0-|-------0-------------------|
D|---------------------------|---------------------------|
A|---------------------------|---------------------------|
E|---------------------------|---------------------------|
  Dave
e|------ ------ ------ ------|------ ------ ------ ------|
B|----5--6---8--6---5--------|8--------------------------|
G|---------------------7---5-|--------------5------5-----|
D|----2--3---5--3---2--------|5--------------------------|
A|---------------------5---3-|--------------3------3-----|
E|---------------------------|---------------------------|

e|8----- 8----- ------ ------|------ 3----- ------ ------|
B|---------------------------|---------------------------|
G|5------5-------------------|-------0-------------------|
D|---------------------------|---------------------------|
A|---------------------------|---------------------------|
E|---------------------------|---------------------------|



e|------ ------ ------ ------|
B|------------------6--------|
G|-----------4--7------------|
D|-------5----------3--------|
A|-----------2--5------------|
E|-------3-------------------|

e|3----- ------ ------ ------|
B|---------------------------|
G|0--------------------------|
D|---------------------------|
A|---------------------------|
E|---------------------------|



C
e|------ ------ ------ ------|------ ------ ------ ------|
B|---------------------------|-----------5---------------|
G|-----------5---------------|5---7--5-------------------|
D|5---7--5----------5--------|5--------------------------|
A|---------------------------|---------------------------|
E|---------------------------|---------------------------|
  Send me a postcard,         drop me a line,

G
e|------ ------ ------ ------|------ ------ ------ ------|
B|5---8---------5----------8-|---------------------------|
G|---------------------5---7-|---------------------------|
D|5-------------5----------5-|---------------------------|
A|---------------------------|---------------------------|
E|---------------------------|---------------------------| 
  Stating       point  of  view

G7
e|------ ------ ------ ------|------ ------ ------ ------|
B|---------------------------|---------------------------|
G|7--------------------------|---------------------------|
D|5--------------------------|---------------------------|
A|---------------------------|---------------------------|
E|---------------------------|---------------------------|
  Indicate precisely what you mean   to  say
e|----5- 6---7- ----5- 6---7-|------ ------ ------ ------|
B|8-------------8------------|8---7------6---------------|
G|---------------------------|---------------------------|
D|---------------------------|---------------------------|
A|---------------------------|---------------------------|
E|---------------------------|---------------------------|

e|13---- 13---- 13---- 13----|13---- 13---- 13---- 13----|
B|12-----12-----12-----12----|12-----12-----12-----12----|
G|12-----12-----12-----12----|12-----12-----12-----12----|
D|---------------------------|---------------------------|
A|---------------------------|---------------------------|
E|---------------------------|---------------------------|

e|------ ------ ------ ------|------ ------ ------ ------|
B|------------------5--------|------------------6--------|
G|---------------------------|-------7-------------------|
D|---------------------------|---------------------------|
A|---------------------------|---------------------------|
E|---------------------------|---------------------------|

C
e|------ 5----- 6----- 6-----|------ ------ ------ ------|
B|8--------------------------|8---7--6---5---------------|
G|0--------------------------|---------------------------|
D|---------------------------|---------------------------|
A|---------------------------|7---6--5---3---------------|
E|---------------------------|---------------------------|
  Yours sincerely,            wasting away

e|------ ------ ------ ------|------ ------ ------ ------|
B|---------------------------|-----------5---------------|
G|-----------5---------------|5---7--5-------------------|
D|5------5----------5--------|5--------------------------|
A|---------------------------|---------------------------|
E|---------------------------|---------------------------|
  Give me your answer,        fill in a form
e|------ ------ ------ ------|------ ------ ------ ------|
B|-------3------1------------|----1-------------3------1-|
G|---------------------0-----|-----------0---------------|
D|---------------------------|---------------------------|
A|---------------------------|---------------------------|
E|---------------------------|---------------------------|

C7                          F
e|------ ------ ------ ------|------ ------ ------ ------|
B|----8--7------6------------|6--------------------------|
G|---------------------9-----|---------------------------|
D|----8----------------------|7--------------------------|
A|---------------------------|---------------------------|
E|---------------------------|---------------------------|
   Mine  for  evermore
e|------ ------ ------ ------|------ 1----- ------ ------|
B|---------------------------|--------------4---4--------|
G|-------1----------3--------|-------------------------2-|
D|---------------------------|---------------------------|
A|---------------------------|---------------------------|
E|---------------------------|---------------------------|

F          Fm               C          A
e|5----- ----4- ------ ------|3----- ----5- ------ ------|
B|---------------------------|---------------------------|
G|5----------5---------------|5----------6---------------|
D|---------------------------|---------------------------|
A|---------------------------|---------------------------|
E|---------------------------|---------------------------|
  Will you still need me,     will you still feed me,
e|------ ------ ------ ------|------ ------ ------ ------|
B|1------4-------------------|-------1-------------------|
G|---------------------------|-------------------------0-|
D|------------------1------0-|2--------------------2-----|
A|---------------------3-----|---------------------------|
E|---------------------------|---------------------------|

D             G             C
e|------ ------ ------ ------|------ ------ ------ ------|
B|7-------------6------------|5--------------------------|
G|5-------------4------------|5--------------------------|
D|---------------------------|---------------------------|
A|---------------------------|---------------------------|
E|---------------------------|---------------------------|
  When I'm      sixty         four.
e|------ ------ ------ ------|------ 0----- ------ ------|
B|------------------8--------|-------1------1------------|
G|--------------7------------|-------0------0------------|
D|4------4-----------------9-|10------------2------------|
A|---------------------------|---------------------------|
E|---------------------------|---------------------------|

C
e|------ ------ ------ ------|------ ------ ------ ------|
B|---------------------------|-----------1------0--1---3-|
G|-----------0---------------|0---2--0---0---------------|
D|2---1--2-------------2-----|2--------------------2-----|
A|---------------------------|---------------------------|
E|---------------------------|---------------------------|

F6            G             C      G      C
e|0----- ------ ------ ------|------ ------ ------ ------|
B|1---3--1------1---3------1-|---------------------------|
G|2----------2--0------------|---------------------------|
D|------------------3------2-|---------------------------|
A|---------------------------|---------------------------|
E|---------------------------|---------------------------|

e|------ ------ ------ ------|------ ------ ------ ------|
B|---------------------------|-------0------1------------|
G|---------------------------|-------0------0------------|
D|---------------------------|-------0------2------------|
A|---------------------------|--------------3------------|
E|---------------------------|-------3-------------------|

B  Bend
        R  Release
        /  slide up
        \  slide down
        H  hammer-on
        P  pull-off
        ~  vibrato
        +  harmonic
        x  Mute note
        . - play note like a dot in standard notation
        ^ - ties two notes together
 
 
The Beatles - When Im Sixty Four Tab :: indexed at Ultimate Guitar.
When Im Sixty Four tabs @ 911Tabs

Quick tip, so you can enjoy When Im Sixty Four Tab even more:

Try out the AutoScroller option ... It scrolls the page for you, so you can totally focus on nailing that solo. You can choose among different speeds using your mouse or your keyboard (keys 0, 1, 2 and 3).

Show us your talent, perform When Im Sixty Four Tab!

Here you can post a video or audio performance. Tell me more ...
Where can we find your performance? Tell me more ...
Your comment:
Please, log in to post your performance.