Artists by letter: A B C D E F G H I J K L M N O P Q R S T U V W X Y Z 0-9

 
Cartas Desde El Asilo Tab
+ Tabulados de made in spain!                   +
+ [                        +
+++++++++++++++++++++++++++++++++++++++++++++++++

    PARTE 1: Dm ;A# ; G; A/A# A G;  TOKAR 2 VECES              

    PARTE 2:        ESTAS KREO KE SON LAS NOTAS KE SUENAN POR AHI DENTRAS
KUANDO EL PAVO EMPIEZA A  UN VIBRATO POTENTE Y YO KREO KE
SUENAN BIEN.
                        e |-----------------------------------|
                        B |----10---------------------8-------|
                        G |-----------------------------------|
                        D |-----------------------------------|
                        A |-----------------------------------|
                        E |-----------------------------------|

    PARTE 3 : 
      D ; D ;G ;A/A# A G;  ESTOS A KORDES SON DOS GOLPES SECOS MUY RAPIDOS
Y LUEGO APGA EL SONIDO CON LA  ES IGUAL KE EN LA PRIMERA
PARTE.


    PARTE 4:
e |--------------------------------------------------------------------------|
B |--------------------------------------------------------------------------|
G |-----------------------5--------7---------3-X-3-X-3---------5--------7----|
D |---3-X-3-X-3----------------------------------------------5--------7------|
A |-3-X-3-X-3---------5-------7-----------3-X-3-X-3--------------------------|
E |-------3--------5---------1-X-1-X-1---------3--------5----------1-X-1-X-1-|


    ESTRUCTURA 
  1 X 2VECES
  2 X 2VECES
  3 X 2VECES
  4 X 3VECES
  3 X2VECES
  1X 2VECES 

  VUELTA AL PRINCIPIO


    FINAL:
A/A# A G X4
Dm X1
 
 
Reincidentes - Cartas Desde El Asilo Tab :: indexed at Ultimate Guitar.
Cartas Desde El Asilo tabs @ 911Tabs
People who played Reincidentes - Cartas Desde El Asilo Tab also played these songs by Reincidentes:
Vicio Tab, Mili Kk Tab, La Cadena Chords, La Memoria Chords, Dime Chords, La Rabia Chords

Quick tip, so you can enjoy Cartas Desde El Asilo Tab even more:

Try out the AutoScroller option ... It scrolls the page for you, so you can totally focus on nailing that solo. You can choose among different speeds using your mouse or your keyboard (keys 0, 1, 2 and 3).

Show us your talent, perform Cartas Desde El Asilo Tab!

Here you can post a video or audio performance. Tell me more ...
Where can we find your performance? Tell me more ...
Your comment:
Please, log in to post your performance.