Artists by letter: A B C D E F G H I J K L M N O P Q R S T U V W X Y Z 0-9

True Love Waits Chords (ver 3) - Radiohead


 
True Love Waits Chords
2016 version from A Moon Shaped Pool


    Cmaj7                         Am                            G#
e|-----------------------------|-----------------------------|-----------------------------|
B|-----------0--------------0--|-----------1--------------1--|-----------1--------------1--|
G|-----------------------------|-----------------------------|-----------------------------|
D|------2-----------2----------|------2-----------2----------|------1------------1---------|
A|--3-----3-----3-------3------|--0-----0-----0-------0------|-----------------------------|
E|-----------------------------|-----------------------------|--4-----4-----4-------4------|

                                            or

    Cmaj7                         Am                            G#
e|-----------------------------|-----------------------------|-----------------------------|
B|-----------------------------|-----------------------------|-----------------------------|
G|-----------4--------------4--|-----------5--------------5--|-----------5--------------5--|
D|------2-----------2----------|-----------------------------|-----------------------------|
A|--3-----3-----3-------3------|------7-----------7----------|------6-----------6----------|
E|-----------------------------|--5-----5-----5-------5------|--4-----4-----4-------4------|


[Verse 1]

Cmaj7
     I'll drown my beliefs
Am                    G#
     To have your babies
Cmaj7
     I'll dress like your niece
Am                           G#
     And wash your swollen feet


[Chorus 1] 

Cmaj7 F     C
 Just don't leave
G     Am    
Don't leave
G


[Verse 2]

Cmaj7
     I'm not living
Am                      G#
     I'm just killing time
Cmaj7
     Your tiny hands
Am                        G#
     Your crazy kitten smile


[Chorus 2] 

Cmaj7 F     C
 Just don't leave
G     Am    
Don't leave
G


[Verse 3]

Cmaj7
    And true love waits
Am                 G#
    In haunted attics
Cmaj7
    And true love lives
Am                       G#
    On lollipops and crisps


[Chorus 3] 

Cmaj7 F     C
 Just don't leave
G     Am    Cmaj7
Don't leave


 
 
Radiohead - True Love Waits Chords :: indexed at Ultimate Guitar.
True Love Waits tabs @ 911Tabs

About the artist behind True Love Waits Chords:

Radiohead are an English alternative rock band from Oxfordshire. The band is composed of Thom Yorke (lead vocals, rhythm guitar, piano, electronics), Jonny Greenwood (lead guitar, other instruments), Ed O'Brien (guitar, backing vocals), Colin Greenwood (bass guitar, synthesisers) and Phil Selway (drums, percussion). Radiohead have released seven albums and have sold over 23 million records throughout their career.[1]

Radiohead released their first single, "Creep", in 1992, and their debut album, Pablo Honey, in 1993. Though initially unsuccessful, "Creep" was a worldwide hit when reissued a year later. Radiohead's popularity in the United Kingdom increased with the release of their second album, The Bends (1995). The band's textured guitar atmospheres and Yorke's falsetto singing were warmly received by critics and fans. With the release of OK Computer (1997), Radiohead were propelled to greater fame worldwide. Featuring an expansive sound and themes of alienation from the modern world, OK Computer has often been acclaimed as a landmark record of the 1990s.

The release of Kid A (2000) and Amnesiac (2001) saw Radiohead reach their peak popularity, although the albums divided critical opinion. This period marked a change in Radiohead's musical style, with their incorporation of avant-garde electronic music, Krautrock and jazz influences. Hail to the Thief (2003), Radiohead's sixth album, blended styles from throughout the band's career, mixing guitar-driven rock, electronic influences and contemporary lyrics. Radiohead subsequently left their record label, EMI, and released their seventh album, In Rainbows (2007), through their own website as a digital download for which customers selected their own price.

Indexed at Wikipedia.

Show us your talent, perform True Love Waits Chords!

Here you can post a video or audio performance. Tell me more ...
Where can we find your performance? Tell me more ...
Your comment:
Please, log in to post your performance.