Artists by letter: A B C D E F G H I J K L M N O P Q R S T U V W X Y Z 0-9

 
Maquiladora Tab
-------------------------------------------------------------------------------
                             MAQUILODORA - Radiohead
-------------------------------------------------------------------------------
PLEASE RATE!!!!!!!!!!!!!!!

Tuning: e-B-G-D-A-E

    INTRO

Guitar 1-Thom Yorke
  2x
e|-0-0-0-0-0-0-0-0--|--0-0-0-0-0-0-0-0--0-0-0-0-0-0-0-0-|
B|-0-0-0-0-0-0-0-0--|--0-0-0-0-0-0-0-0--0-0-0-0-0-0-0-0-|
G|-1-1-1-1-1-1-1-1--|--1-1-1-1-1-1-1-1--1-1-1-1-1-1-1-1-|
D|-2-2-2-2-0-0-0-0--|--2-2-2-2-0-0-0-0--2-2-2-2-0-0-0-0-|
A|-2-2-0-0-0-0-0-0--|--2-2-0-0-0-0-0-0--2-2-0-0-0-0-0-0-|
E|-0-0-0-0-0-0-0-0--|--0-0-0-0-0-0-0-0--0-0-0-0-0-0-0-0-|

Guitar 2-Ed O'Brien
e|------------------------------------------------------|
B|------------------------------------------------------|
G|------------------------------------------------------|
D|------------------------------------------------------|
A|------------------------------------------------------|
E|---------------------0-0-4-5-4-0--0-4-5-4-0-0-4-5-4-0-|

Guitar 3-Jonny Greenwood
e|------------------------------------------------------|
B|---------------------4-5-4-5-4h5p4~----5-4-5-4-5~\----|
G|------------------------------------------------------|
D|------------------------------------------------------|
A|------------------------------------------------------|
E|------------------------------------------------------|

    VERSE 1
Guitar 1                                 
e|-0-0-0-0-0-0-0-0--|-0-0-0-0-0-0-0-0-|-0-0-0-0-0-0-0-0-|-0-0-0-0-0-0-0-0-|
B|-0-0-0-0-0-0-0-0--|-0-0-0-0-0-0-0-0-|-0-0-0-0-0-0-0-0-|-0-0-0-0-0-0-0-0-|
G|-1-1-1-1-1-1-1-1--|-1-1-1-1-1-1-1-1-|-1-1-1-1-1-1-1-1-|-1-1-1-1-1-1-1-1-|
D|-2-2-2-2-0-0-0-0--|-2-2-2-2-0-0-0-0-|-2-2-2-2-0-0-0-0-|-2-2-2-2-0-0-0-0-|
A|-2-2-0-0-0-0-0-0--|-2-2-0-0-0-0-0-0-|-2-2-0-0-0-0-0-0-|-2-2-0-0-0-0-0-0-|
E|-0-0-0-0-0-0-0-0--|-0-0-0-0-0-0-0-0-|-0-0-0-0-0-0-0-0-|-0-0-0-0-0-0-0-0-|

"Exploding gracefully"

Guitar 1
e|-x-x-x-x-2-2-2-2-|-0-0-0-0-0-0-0-0--0-0-0-0-0-0-0-0-|
B|-x-x-x-x-4-4-4-4-|-0-0-0-0-0-0-0-0--0-0-0-0-0-0-0-0-|
G|-4-4-4-4-4-4-4-4-|-1-1-1-1-1-1-1-1--1-1-1-1-1-1-1-1-|
D|-4-4-4-4-4-4-4-4-|-2-2-2-2-0-0-0-0--2-2-2-2-0-0-0-0-|
A|-2-2-2-2-2-2-2-2-|-2-2-0-0-0-0-0-0--2-2-0-0-0-0-0-0-|
E|-x-x-x-x-x-x-x-x-|-0-0-0-0-0-0-0-0--0-0-0-0-0-0-0-0-|

Guitar 2
e|-x-x-x-x-2-2-2-2-|----------------------------------|
B|-x-x-x-x-4-4-4-4-|----------------------------------|
G|-4-4-4-4-4-4-4-4-|----------------------------------|
D|-4-4-4-4-4-4-4-4-|----------------------------------|
A|-2-2-2-2-2-2-2-2-|----------------------------------|
E|-x-x-x-x-x-x-x-x-|-0-0-4-5-4-0--0-4-5-4-0-0-4-5-4-0-|

Guitar 3
e|--------------------------------------|------------------------------------|
B|-------------------11-12-11-11-12p11~-|------------------------------------|
G|-8-8-8-8-8-9-8-9p8--------------------|------------------------------------|
D|--------------------------------------|------------------------------------|
A|--------------------------------------|------------------------------------|
E|--------------------------------------|-0-0-4-5-4-0--0-4-5-4-0-0-4-5-4-0---|


"Grass is green at the edge of the bubble"

Guitar 1
e|---------------------------------------------------------------------------|
B|---------------------------------------------------------------------------|
G|-0-0-0-0-0-0/-7-7-9-9-9-9-9-9-7-7\-0-0-0-0-0-2/-7-7-9-9-9-9-9-9------------|
D|-2-2-2-2-2-2/-9-9-9-9-9-9-9-9-9-9\-2-2-2-2-2-2/-9-9-9-9-9-9-9-9-9-9--------|
A|-2-2-2-2-2-2/-9-9-7-7-7-7-7-7-9-9\-2-2-2-2-2-2/-9-9-7-7-7-7-7-7-9-9--------|
E|-0-0-0-0-0-0/-7-7-x-x-x-x-x-x-7-7\-0-0-0-0-0-0/-7-7-x-x-x-x-x-x-7-7--------|
   PM______________________________________________________________PM

Guitar 2
e|---------------------------------------------------------------------------|
B|---------------------------------------------------------------------------|
G|-0-0-0-0-0-0/-7-7-9-9-9-9-9-9-7-7\-0-0-0-0-0-2/-7-7-9-9-9-9-9-9------------|
D|-2-2-2-2-2-2/-9-9-9-9-9-9-9-9-9-9\-2-2-2-2-2-2/-9-9-9-9-9-9-9-9-9-9--------|
A|-2-2-2-2-2-2/-9-9-7-7-7-7-7-7-9-9\-2-2-2-2-2-2/-9-9-7-7-7-7-7-7-9-9--------|
E|-0-0-0-0-0-0/-7-7-x-x-x-x-x-x-7-7\-0-0-0-0-0-0/-7-7-x-x-x-x-x-x-7-7--------|
   PM______________________________________________________________PM

Guitar 3
e|-7p4p0------------7p4p0------------7p4p0------------7p4p0------------------|
B|-------5-7-5------------5-7-5------------5-7-5------------5-7-5------------|
G|-------------6-4--------------6-4--------------6-4--------------6-4--------|
D|---------------------------------------------------------------------------|
A|---------------------------------------------------------------------------|
E|---------------------------------------------------------------------------|

"And it seems to fall out of the sky"

Guitar 1                                                                 
e|-----------------------2-2-2-2-2-2-2-2---------------|
B|-----------------------4-4-4-4-4-4-4-4---------------|
G|-6-6-6-6-6-6-6-6\-4--4-4-4-4-4-4-4-4-4-4--4/-6-6-6-6-|
D|-6-6-6-6-6-6-6-6\-4--4-4-4-4-4-4-4-4-4-4--4/-6-6-6-6-|
A|-4-4-4-4-4-4-4-4\-2--2-2-2-2-2-2-2-2-2-2--2/-4-4-4-4-|
E|-x-x-x-x-x-x-x-x\-x--x-x-x-x-x-x-x-x-x-x--x/-x-x-x-x-|

Guitar 2
e|-----------------------2-2-2-2-2-2-2-2---------------|
B|-----------------------4-4-4-4-4-4-4-4---------------|
G|-6-6-6-6-6-6-6-6\-4--4-4-4-4-4-4-4-4-4-4--4/-6-6-6-6-|
D|-6-6-6-6-6-6-6-6\-4--4-4-4-4-4-4-4-4-4-4--4/-6-6-6-6-|
A|-4-4-4-4-4-4-4-4\-2--2-2-2-2-2-2-2-2-2-2--2/-4-4-4-4-|
E|-x-x-x-x-x-x-x-x\-x--x-x-x-x-x-x-x-x-x-x--x/-x-x-x-x-|

Guitar 3
e|-----------------------------------------------------|
B|-----------------------------------------------------|
G|-6-----8-----9----16----13~--------------------------|
D|-x-----x-----x----xx----xx~--------------------------|
A|-4-----6-----7----14----11~--------------------------|
E|-----------------------------------------------------|

Guitar 3
e|-----0-------0-------0-------0---|
B|---4---4---4---4---3---3---3---3-|
G|-6-------6-------5-------5-------|
D|---------------------------------|
A|---------------------------------|
E|---------------------------------|

"Oh baby burn!"

Guitar 1
e|----------|-0-0-0-0-0-0-0-0--0-0-0-0-0-0-0-0-|
B|----------|-0-0-0-0-0-0-0-0--0-0-0-0-0-0-0-0-|
G|-5--4--12-|-1-1-1-1-1-1-1-1--1-1-1-1-1-1-1-1-|
D|-5--4--12-|-2-2-2-2-0-0-0-0--2-2-2-2-0-0-0-0-|
A|-3--2--10-|-2-2-0-0-0-0-0-0--2-2-0-0-0-0-0-0-|
E|----------|-0-0-0-0-0-0-0-0--0-0-0-0-0-0-0-0-|

Guitar 2
e|----------|----------------------------------|
B|----------|----------------------------------|
G|-5--4--12-|----------------------------------|
D|-5--4--12-|----------------------------------|
A|-3--2--10-|----------------------------------|
E|----------|-0-0-4-5-4-0--0-4-5-4-0-0-4-5-4-0-|

Guitar 3
e|----------|----------------------------------|--------------------|
B|----------|----------------------------------|-4-5-4-5-4h5p4~~~~~-|
G|-5--4--12-|----------------------------------|--------------------|
D|-5--4--12-|----------------------------------|--------------------|
A|-3--2--10-|----------------------------------|--------------------|
E|----------|-0-0-4-5-4-0--0-4-5-4-0-0-4-5-4-0-|--------------------|

    VERSE 2
Guitar 1                                 
e|-0-0-0-0-0-0-0-0--|-0-0-0-0-0-0-0-0-|-0-0-0-0-0-0-0-0-|-0-0-0-0-0-0-0-0-|
B|-0-0-0-0-0-0-0-0--|-0-0-0-0-0-0-0-0-|-0-0-0-0-0-0-0-0-|-0-0-0-0-0-0-0-0-|
G|-1-1-1-1-1-1-1-1--|-1-1-1-1-1-1-1-1-|-1-1-1-1-1-1-1-1-|-1-1-1-1-1-1-1-1-|
D|-2-2-2-2-0-0-0-0--|-2-2-2-2-0-0-0-0-|-2-2-2-2-0-0-0-0-|-2-2-2-2-0-0-0-0-|
A|-2-2-0-0-0-0-0-0--|-2-2-0-0-0-0-0-0-|-2-2-0-0-0-0-0-0-|-2-2-0-0-0-0-0-0-|
E|-0-0-0-0-0-0-0-0--|-0-0-0-0-0-0-0-0-|-0-0-0-0-0-0-0-0-|-0-0-0-0-0-0-0-0-|


"Good times had by all"
Guitar 1
e|-x-x-x-x-2-2-2-2-|-0-0-0-0-0-0-0-0--0-0-0-0-0-0-0-0-|
B|-x-x-x-x-4-4-4-4-|-0-0-0-0-0-0-0-0--0-0-0-0-0-0-0-0-|
G|-4-4-4-4-4-4-4-4-|-1-1-1-1-1-1-1-1--1-1-1-1-1-1-1-1-|
D|-4-4-4-4-4-4-4-4-|-2-2-2-2-0-0-0-0--2-2-2-2-0-0-0-0-|
A|-2-2-2-2-2-2-2-2-|-2-2-0-0-0-0-0-0--2-2-0-0-0-0-0-0-|
E|-x-x-x-x-x-x-x-x-|-0-0-0-0-0-0-0-0--0-0-0-0-0-0-0-0-|

Guitar 2
e|-x-x-x-x-2-2-2-2-|----------------------------------|
B|-x-x-x-x-4-4-4-4-|----------------------------------|
G|-4-4-4-4-4-4-4-4-|----------------------------------|
D|-4-4-4-4-4-4-4-4-|----------------------------------|
A|-2-2-2-2-2-2-2-2-|----------------------------------|
E|-x-x-x-x-x-x-x-x-|-0-0-4-5-4-0--0-4-5-4-0-0-4-5-4-0-|

Guitar 3
e|------------------------------------------------------|
B|-~-4-4-5-5-6-6-7-7--------------11-11-12-11-12-p11h12-|
G|-------------------8-8-8-8h9-p8-----------------------|
D|------------------------------------------------------|
A|------------------------------------------------------|
E|------------------------------------------------------|

"Blue and white boots stepping hard on the pedal"

Guitar 1
e|---------------------------------------------------------------------------|
B|---------------------------------------------------------------------------|
G|-0-0-0-0-0-0/-7-7-9-9-9-9-9-9-7-7\-0-0-0-0-0-2/-7-7-9-9-9-9-9-9------------|
D|-2-2-2-2-2-2/-9-9-9-9-9-9-9-9-9-9\-2-2-2-2-2-2/-9-9-9-9-9-9-9-9-9-9--------|
A|-2-2-2-2-2-2/-9-9-7-7-7-7-7-7-9-9\-2-2-2-2-2-2/-9-9-7-7-7-7-7-7-9-9--------|
E|-0-0-0-0-0-0/-7-7-x-x-x-x-x-x-7-7\-0-0-0-0-0-0/-7-7-x-x-x-x-x-x-7-7--------|
   PM______________________________________________________________PM

Guitar 2
e|---------------------------------------------------------------------------|
B|-----------------4-5----7---4-5----------------------4-5---7---4-5---------|
G|---------------4------4---4------------------------4-----4---4-------------|
D|---------------------------------------------------------------------------|
A|---------------------------------------------------------------------------|
E|---------------------------------------------------------------------------|

Guitar 3
e|-7p4p0------------7p4p0------------7p4p0------------7p4p0------------------|
B|-------5-7-5------------5-7-5------------5-7-5------------5-7-5------------|
G|-------------6-4--------------6-4--------------6-4--------------6-4--------|
D|---------------------------------------------------------------------------|
A|---------------------------------------------------------------------------|
E|---------------------------------------------------------------------------|

"And it seems to fall out of the sky"

Guitar 1                                                                 
e|-----------------------2-2-2-2-2-2-2-2---------------|
B|-----------------------4-4-4-4-4-4-4-4---------------|
G|-6-6-6-6-6-6-6-6\-4--4-4-4-4-4-4-4-4-4-4--4/-6-6-6-6-|
D|-6-6-6-6-6-6-6-6\-4--4-4-4-4-4-4-4-4-4-4--4/-6-6-6-6-|
A|-4-4-4-4-4-4-4-4\-2--2-2-2-2-2-2-2-2-2-2--2/-4-4-4-4-|
E|-x-x-x-x-x-x-x-x\-x--x-x-x-x-x-x-x-x-x-x--x/-x-x-x-x-|

Guitar 2
e|-----------------------2-2-2-2-2-2-2-2---------------|
B|-----------------------4-4-4-4-4-4-4-4---------------|
G|-6-6-6-6-6-6-6-6\-4--4-4-4-4-4-4-4-4-4-4--4/-6-6-6-6-|
D|-6-6-6-6-6-6-6-6\-4--4-4-4-4-4-4-4-4-4-4--4/-6-6-6-6-|
A|-4-4-4-4-4-4-4-4\-2--2-2-2-2-2-2-2-2-2-2--2/-4-4-4-4-|
E|-x-x-x-x-x-x-x-x\-x--x-x-x-x-x-x-x-x-x-x--x/-x-x-x-x-|

Guitar 3
e|-----------------------------------------------------|
B|-----------------------------------------------------|
G|-6-----8-----9----16----13~--------------------------|
D|-x-----x-----x----xx----xx~--------------------------|
A|-4-----6-----7----14----11~--------------------------|
E|-----------------------------------------------------|

Guitar 3
e|-----0-------0-------0-------0---|
B|---4---4---4---4---3---3---3---3-|
G|-6-------6-------5-------5-------|
D|---------------------------------|
A|---------------------------------|
E|---------------------------------|

"Oh baby burn!"

Guitar 1
e|----------|-0-0-0-0-0-0-0-0--0-0-0-0-0-0-0-0-0-0-0-0-|
B|----------|-0-0-0-0-0-0-0-0--0-0-0-0-0-0-0-0-0-0-0-0-|
G|-5--4--12-|-1-1-1-1-1-1-1-1--1-1-1-1-1-1-1-1-1-1-1-1-|
D|-5--4--12-|-2-2-2-2-0-0-0-0--2-2-2-2-0-0-0-0-0-0-0-0-|
A|-3--2--10-|-2-2-0-0-0-0-0-0--2-2-0-0-0-0-0-0-0-0-0-0-|
E|----------|-0-0-0-0-0-0-0-0--0-0-0-0-0-0-0-0-0-0-0-0-|

Guitar 2
e|----------|------------------------------------------|
B|----------|------------------------------------------|
G|-5--4--12-|------------------------------------------|
D|-5--4--12-|------------------------------------------|
A|-3--2--10-|------------------------------------------|
E|----------|-0-0-4-5-4-0--0-4-5-4-0-0-4-5-4-0-0-4-5-4-|
Guitar 3
e|----------|------------------------------------------|
B|----------|----------------------------------4-4-4-4-|
G|-5--4--12-|------------------------------------------|
D|-5--4--12-|------------------------------------------|
A|-3--2--10-|------------------------------------------|
E|----------|-0-0-4-5-4-0--0-4-5-4-0-0-4-5-4-0---------|


    SOLO

Guitar 3
e|-----------------------------------------------------------------------|
B|-5p4-2h4~-4p2-4-4-5-7-5-5-5-3-3-3-1-1-1-3-4-5~-7-7b8-5h7b8-5h7b8-5h7b8-|
G|-----------------------------------------------------------------------|
D|-----------------------------------------------------------------------|
A|-----------------------------------------------------------------------|
E|-----------------------------------------------------------------------|

e|-----------------------------------------------------------------------|
B|-5-3-3-1---------------------------------------------------------------|
G|-----------------------------------------------------------------------|
D|------------2---2-4---2b3r2-----2---2-4---2b3r2------------------------|
A|----------4---4-----4---------4---4-----4------------------------------|
E|-----------------------------------------------------------------------|

Guitar 1(During the solo)
e|-----------------------------------------------------------------------|
B|-----------------------------------------------------------------------|
G|-----------------------------------------------------------------------|
D|-6-6-6-6--5-5-5-5--6-6-6-6--5-5-5-5--5/-6-6-6-6--6\-5-5-5-5--5/-5-5-5-5|
A|-6-6-6-6--5-5-5-5--6-6-6-6--5-5-5-5--5/-6-6-6-6--6\-5-5-5-5--5/-5-5-5-5|
E|-4-4-4-4--3-3-3-3--4-4-4-4--3-3-3-3--3/-4-4-4-4--4\-3-3-3-3--3/-3-3-3-3|

Guitar 2(During the solo)
e|-----------------------------------------------------------------------|
B|-----------------------------------------------------------------------|
G|-----------------------------------------------------------------------|
D|-6-6-6-6--5-5-5-5--6-6-6-6--5-5-5-5--5/-6-6-6-6--6\-5-5-5-5--5/-5-5-5-5|
A|-6-6-6-6--5-5-5-5--6-6-6-6--5-5-5-5--5/-6-6-6-6--6\-5-5-5-5--5/-5-5-5-5|
E|-4-4-4-4--3-3-3-3--4-4-4-4--3-3-3-3--3/-4-4-4-4--4\-3-3-3-3--3/-3-3-3-3|

Guitar 3
e|-----0-------0-------0-------0---|
B|---4---4---4---4---3---3---3---3-|
G|-6-------6-------5-------5-------|
D|---------------------------------|
A|---------------------------------|
E|---------------------------------|

    AFTER THE SOLO (END)

Guitar 1
e|----------|-0-0-0-0-0-0-0-0--0-0-0-0-0-0-0-0-|
B|----------|-0-0-0-0-0-0-0-0--0-0-0-0-0-0-0-0-|
G|-5--4--12-|-1-1-1-1-1-1-1-1--1-1-1-1-1-1-1-1-|
D|-5--4--12-|-2-2-2-2-0-0-0-0--2-2-2-2-0-0-0-0-|
A|-3--2--10-|-2-2-0-0-0-0-0-0--2-2-0-0-0-0-0-0-|
E|----------|-0-0-0-0-0-0-0-0--0-0-0-0-0-0-0-0-|

Guitar 2
e|----------|----------------------------------|
B|----------|----------------------------------|
G|-5--4--12-|----------------------------------|
D|-5--4--12-|----------------------------------|
A|-3--2--10-|----------------------------------|
E|----------|-0-0-4-5-4-0--0-4-5-4-0-0-4-5-4-0-|

Guitar 3
e|----------|----------------------------------|--------------------|
B|----------|----------------------------------|-4-5-4-5-4h5p4~~~~~-|
G|-5--4--12-|----------------------------------|--------------------|
D|-5--4--12-|----------------------------------|--------------------|
A|-3--2--10-|----------------------------------|--------------------|
E|----------|-0-0-4-5-4-0--0-4-5-4-0-0-4-5-4-0-|--------------------|

Guitar 1
e|-0-0-0-0-0-0-0-0--0-0-0-0-0-0-0-0-|
B|-0-0-0-0-0-0-0-0--0-0-0-0-0-0-0-0-|
G|-1-1-1-1-1-1-1-1--1-1-1-1-1-1-1-1-|
D|-2-2-2-2-0-0-0-0--2-2-2-2-0-0-0-0-|
A|-2-2-0-0-0-0-0-0--2-2-0-0-0-0-0-0-|
E|-0-0-0-0-0-0-0-0--0-0-0-0-0-0-0-0-|

Guitar 2
e|----------------------------------|
B|----------------------------------|
G|----------------------------------|
D|----------------------------------|
A|----------------------------------|
E|-0-0-4-5-4-0--0-4-5-4-0-0-4-5-4-0-|

Guitar 3
e|----------------------------------|
B|-~~~-4-5-4-5-4h5~-----------------|
G|----------------------------------|
D|----------------------------------|
A|----------------------------------|
E|----------------------------------|


************************************

| /   slide up
| \   slide down
| h   hammer-on
| p   pull-off
| ~   vibrato
| b   Bend
| br  Bend release

************************************
 
 
Radiohead - Maquiladora Tab :: indexed at Ultimate Guitar.
Maquiladora tabs @ 911Tabs

About the artist behind Maquiladora Tab:

Radiohead are an English alternative rock band from Oxfordshire. The band is composed of Thom Yorke (lead vocals, rhythm guitar, piano, electronics), Jonny Greenwood (lead guitar, other instruments), Ed O'Brien (guitar, backing vocals), Colin Greenwood (bass guitar, synthesisers) and Phil Selway (drums, percussion). Radiohead have released seven albums and have sold over 23 million records throughout their career.[1]

Radiohead released their first single, "Creep", in 1992, and their debut album, Pablo Honey, in 1993. Though initially unsuccessful, "Creep" was a worldwide hit when reissued a year later. Radiohead's popularity in the United Kingdom increased with the release of their second album, The Bends (1995). The band's textured guitar atmospheres and Yorke's falsetto singing were warmly received by critics and fans. With the release of OK Computer (1997), Radiohead were propelled to greater fame worldwide. Featuring an expansive sound and themes of alienation from the modern world, OK Computer has often been acclaimed as a landmark record of the 1990s.

The release of Kid A (2000) and Amnesiac (2001) saw Radiohead reach their peak popularity, although the albums divided critical opinion. This period marked a change in Radiohead's musical style, with their incorporation of avant-garde electronic music, Krautrock and jazz influences. Hail to the Thief (2003), Radiohead's sixth album, blended styles from throughout the band's career, mixing guitar-driven rock, electronic influences and contemporary lyrics. Radiohead subsequently left their record label, EMI, and released their seventh album, In Rainbows (2007), through their own website as a digital download for which customers selected their own price.

Indexed at Wikipedia.

Show us your talent, perform Maquiladora Tab!

Here you can post a video or audio performance. Tell me more ...
Where can we find your performance? Tell me more ...
Your comment:
Please, log in to post your performance.