Artists by letter: A B C D E F G H I J K L M N O P Q R S T U V W X Y Z 0-9

 
Lucky Acoustic Chords
There are a lot of different versions of this song with wrong lyrics and missing chord parts.
Here's mine version. It's an acoustic version different from others.
Enjoy.
(Sorry for my bad English ;p)

"Lucky" by Radiohead
Written by Thom Yorke, Ed O'brien, Colin Greenwood, Jonny Greenwood, Phil Selway.
Chords by ValeraLis
Version of the song based on the "Bridge School Benefit" 10-26-2002 performans

For an easy version play without chords in brackets.

Chords:
Em----------{0 2 2 0 0 0}
Em(no 5th)--{0 0 2 0 0 0}
Em7---------{0 2 2 0 3 0}
Em*---------{1 2 2 0 0 0}
Cmaj7-------{0 2 2 0 1 0}
Am----------{0 0 2 2 1 0}
G-----------{3 2 0 0 0 3}
Bm----------{2 2 4 4 3 2}
Bm*---------{0 0 4 4 3 0}
D6add9------{x x 4 4 3 2}
C-----------{0 3 2 0 1 0}
B7----------{0 2 1 2 0 2}



[Verse 1]
 
  Em          Am    G          Bm     (Bm*-D6add9-Bm*)       Em (Cmaj7)
     I'm on a roll,   I'm on a roll.....................this time
  C      G     Bm          Em    (Em-Em(no 5th)-Em-Cmaj7-Em)
     I feel my luck could change
  Em           Am
     Kill me Sarah,
  G           Bm     Bm*-D6add9-Bm*         Em (Cmaj7)
     Kill me again....................with love
  C             G     Bm       Em  (Em-Em(no 5th)-Em-Em7-Em)
     It's gonna be a glorious day


[Chorus]
          A          Em         Em7 Em
  Pull me out of the aircrash,
          A          Em         Em7 Em
  Pull me out of the lake,
                  A    Em
  Cause I'm your superhero
           C             B7    Em (Em-Em*-Em-Cmaj7-Em)
  We are standing on the edge


[verse 2]
  Em              Am   G                 Bm    (Bm*-D6add9-Bm*)      Em (Cmaj7)
     The Head of State....has called for me......................by name
  C         G        Bm       Em   (Em-Em(no 5th)-Em-Cmaj7-Em)
     But I dont have time for him
  Em           Am   G      Bm      Em (Cmaj7)
     Its gonna be.......a glorius day
  C     G       Bm         Em    (Em-Em(no 5th)-Em-Em7-Em)
     I feel my luck could change


[chorus]
          A          Em         Em7 Em
  Pull me out of the aircrash,
          A          Em         Em7 Em
  Pull me out of the lake,
                  A    Em
  Cause I'm your superhero
           C             B7
  We are standing on the edge

(
    Em   F#           E    D    C    D11               \
e|--0----0------------0----0----0----0----------------| \
B|--0----7------------5----3----1----1----------------|  \
G|--0----0------------0----0----0----0----------------|   \ This part 4 times!
D|--2----x------------x----x----x----0----------------|   /
A|--2----9------------7----5----3----3----------------|  /
E|--0----x------------x----x----x----2-----2-3-2-0----| /

This part 4 times /\ then Em Em Em Em7
)

          A          Em         Em7 Em
  Pull me out of the aircrash,..[This line is silent]
          A          Em         Em7 Em
  Pull me out of the lake,......[This line is silent]
                  A    Em
  Cause I'm your superhero......[This line is silent]
           C             B7
..We are standing on the edge..


====================================================================
Tabs for the (Bm   Bm*-D6add9-Bm*   Em) part
---
           Bm       Bm*-D6add9-Bm*               Em
e|---------2---------0----2----0-----------------0------------|
B|---------3---------3----3----3-----------------0------------|
G|---------4---------4----4----4-----------------0------------|
D|---------4---------4----4----4-----------------2------------|
A|---------2---------x----x----x-----------------2------------|
E|---------2---------x----x----x-----------------0------------|
  I'm on a roooooooooooooooooooll..........this time



Tabs for the (Em-Em(no 5th)-Em-Cmaj7-Em) part
     and the (Em-Em(no 5th)-Em-Em7-Em) part
---
       Em       Em(no 5th) Em  Em  Cmaj7(Em7)  Em
e|------0------------------0----------0--------0--------------|
B|------0------------------0----------1(3)-----0--------------|
G|------0------------------0----------0--------0--------------|
D|------2------------------2----------2--------2--------------|
A|------2--------0--2------2----------2--------2--------------|
E|------0--------------0---0----------0--------0--------------|



Tabs for the (Em-Em*-Em-Cmaj7-Em) part
---
        Em            Em*   Em           Cmaj7  Em
e|------0--------------0----0--------------0----0-------------|
B|------0--------------0----0--------------1----0-------------|
G|------0--------------0----0--------------0----0-------------|
D|------2--------------2----2--------------2----2-------------|
A|------2--------------2----2--------------2----2-------------|
E|------0--------------1----0--------------0----0-------------|



====================================================================
Hope you like it)
Please comment if you've found some mistakes.
 
 
Radiohead - Lucky Acoustic Chords :: indexed at Ultimate Guitar.
Lucky Acoustic tabs @ 911Tabs

About the artist behind Lucky Acoustic Chords:

Radiohead are an English alternative rock band from Oxfordshire. The band is composed of Thom Yorke (lead vocals, rhythm guitar, piano, electronics), Jonny Greenwood (lead guitar, other instruments), Ed O'Brien (guitar, backing vocals), Colin Greenwood (bass guitar, synthesisers) and Phil Selway (drums, percussion). Radiohead have released seven albums and have sold over 23 million records throughout their career.[1]

Radiohead released their first single, "Creep", in 1992, and their debut album, Pablo Honey, in 1993. Though initially unsuccessful, "Creep" was a worldwide hit when reissued a year later. Radiohead's popularity in the United Kingdom increased with the release of their second album, The Bends (1995). The band's textured guitar atmospheres and Yorke's falsetto singing were warmly received by critics and fans. With the release of OK Computer (1997), Radiohead were propelled to greater fame worldwide. Featuring an expansive sound and themes of alienation from the modern world, OK Computer has often been acclaimed as a landmark record of the 1990s.

The release of Kid A (2000) and Amnesiac (2001) saw Radiohead reach their peak popularity, although the albums divided critical opinion. This period marked a change in Radiohead's musical style, with their incorporation of avant-garde electronic music, Krautrock and jazz influences. Hail to the Thief (2003), Radiohead's sixth album, blended styles from throughout the band's career, mixing guitar-driven rock, electronic influences and contemporary lyrics. Radiohead subsequently left their record label, EMI, and released their seventh album, In Rainbows (2007), through their own website as a digital download for which customers selected their own price.

Indexed at Wikipedia.

Show us your talent, perform Lucky Acoustic Chords!

Here you can post a video or audio performance. Tell me more ...
Where can we find your performance? Tell me more ...
Your comment:
Please, log in to post your performance.