Artists by letter: A B C D E F G H I J K L M N O P Q R S T U V W X Y Z 0-9

 
Weekend Chords
Capo 3

[Intro]

e|---------------------------------------------------------------------------|
B|------3p0------------------------------------------------------------------|
G|---------------4p0-----4p0--2-4-2-0----------------------------------------|
D|---------------------------------------------------------------------------| 
A|------------3--------0-----------------------------------------------------| 2x
E|--3------------------------------------------------------------------------|

i feel best 
when i am 
driving eighty 
headed downstate to 
your house david 


[Verse]

     G    C    A   D
e|---------------------------------------------------------------------------|
B|-----------------3---------------------------------------------------------|
G|-------------2---2---------------------------------------------------------|
D|--------2----2-------------------------------------------------------------|
A|---2----3------------------------------------------------------------------|
E|---3-----------------------------------------------------------------------|

G             C
we'll wake up late 
                A
we'll listen to tapes 
      D
maybe grab some bagels 
G       C             A
go to a show and afterwards 
D
record some demos 


[Verse]

e|---------------------------------------------------------------------------|
B|------3p0------------------------------------------------------------------|
G|---------------4p0-----4p0--2-4-2-0----------------------------------------|
D|---------------------------------------------------------------------------| 
A|------------3--------0-----------------------------------------------------| 2x
E|--3------------------------------------------------------------------------|

whenever i feel 
kind of tired 
all i have to do 
is call elaiza 

G                C        A
just hearing her voice 
      D
makes me feel better 
G              C          A
i just wish we could 
       D
always be together 

G      C          A       D
but we can't 
             G            
that's why i need 
         C             A     D
these weekends away 
            G           C       A     D
to see the people 
         G      C     A       D
i should see every day


[Verse]

e|---------------------------------------------------------------------------|
B|------3p0------------------------------------------------------------------|
G|---------------4p0-----4p0--2-4-2-0----------------------------------------|
D|---------------------------------------------------------------------------|   2x
A|------------3--------0-----------------------------------------------------|   
E|--3------------------------------------------------------------------------|

i kind of hate the town 
where i live 
but as soon as i leave 
i start to miss it 

G   C   A

that's why you gotta  
D                  G    C
come and visit 
        A     D    
next time 
    G           C        A    '
you need a weekend away 
           G
you got a spot 
          C      A    D
where you can stay


[Outro]

G C A D 2x
 
 
Quarterbacks - Weekend Chords :: indexed at Ultimate Guitar.
Weekend tabs @ 911Tabs
People who played Quarterbacks - Weekend Chords also played these songs by Quarterbacks:
Center Chords, Knicks Chords, Pool Chords, Center, Invitation, Not In Luv Tab

Quick tip, so you can enjoy Weekend Chords even more:

YourChords.com Guitar Chords and Tabs Archive is currently indexing over 240'000 songs from 21'000+ different artists. And new chords just keep on coming in, so you will surely never run out of them.

Show us your talent, perform Weekend Chords!

Here you can post a video or audio performance. Tell me more ...
Where can we find your performance? Tell me more ...
Your comment:
Please, log in to post your performance.