Artists by letter: A B C D E F G H I J K L M N O P Q R S T U V W X Y Z 0-9

 
Nescafe Tab
-------------------------------------------------------------------------------
                             Nescafe - Parokya ni Edgar
-------------------------------------------------------------------------------
Tabbed by: Kenshit
E-mail:    [email protected]

Tuning:    Standard [e B G D A E]
Guitars:   Clean

Intro: G# C# F# B-Bbm

e|----------------------------------------------------------|
B|----------------------------------------------------------|
G|---------------------4-5-6--6--6-4-------4--4--3-4-3------|
D|--(drum roll)--6--6--4-5-6--6--6-4-4--4--4--4--3-4-3------| (2x)
A|---------------6--6--2-3-4--4--4-2-4--4--2--2--1-2-1------|
E|---------------4--4----------------2--2-------------------|

Verse 1: "Patakbo-takbo.."

       G#        C#        F#      B - Bbm
e|---44444----4444--4----22222----222--111------------------|
B|---44444----6666h76----22222----444--222------------------|
G|---55555----6666--6----33333----444--333------------------|
D|---66666----6666--6----44444----444--333------------------| (2x)
A|---66666----4444--4----44444----222--111------------------|
E|---44444----xxxx--x----22222----xxx--xxx------------------|

Then repeat Intro:

e|-------------------------------------------------|
B|-------------------------------------------------|
G|----------4-5-6--6--6-4-------4--4--3-4-3--------|
D|----6--6--4-5-6--6--6-4-4--4--4--4--3-4-3--------| (2x)
A|----6--6--2-3-4--4--4-2-4--4--2--2--1-2-1--------|
E|----4--4----------------2--2---------------------|

Verse 2: "Ang bilis ng mundo.."

       G#        C#        F#      B - Bbm
e|---44444----4444--4----22222----222--111------------------|
B|---44444----6666h76----22222----444--222------------------|
G|---55555----6666--6----33333----444--333------------------|
D|---66666----6666--6----44444----444--333------------------| (2x)
A|---66666----4444--4----44444----222--111------------------|
E|---44444----xxxx--x----22222----xxx--xxx------------------|

Chorus: "A cup in hand.."

        G#             C#            G#            C#
e|---4-4-4-4-4-----4-4-4-4-4------4-4-4-4-4-----4-4-4-4-4------|
B|---4-4-4-4-4-----6-6-6-6-7p6----4-4-4-4-4-----6-6-6-6-6------|
G|---5-5-5-5-5-----6-6-6-6-6------5-5-5-5-5-----6-6-6-6-6------|
D|---6-6-6-6-6-----6-6-6-6-6------6-6-6-6-6-----6-6-6-6-6------|
A|---6-6-6-6-6-----4-4-4-4-4------6-6-6-6-6-----4-4-4-4-4------|
E|---4-4-4-4-4-----x-x-x-x-x------4-4-4-4-4-----x-x-x-x-x------|

"Tumambay muna tayo.."
     
     Bbm -  Cm         C#        Bbm -  Cm      C#     Eb
e|---1-11--3-33----4-4-4-4-4-----1-11--3-33----4-4-4---6-------|
B|---2-22--4-44----6-6-6-6-6-----2-22--4-44----6-6-6---8-------|
G|---3-33--5-55----6-6-6-6-6-----3-33--5-55----6-6-6---8-------|
D|---3-33--5-55----6-6-6-6-6-----3-33--5-55----6-6-6---8-------|
A|---1-11--3-33----4-4-4-4-4-----1-11--3-33----4-4-4---6-------|
E|---x-xx--x-xx----x-x-x-x-x-----x-xx--x-xx----x-x-x---x-------|

Then repeat Intro:

e|-------------------------------------------------|
B|-------------------------------------------------|
G|----------4-5-6--6--6-4-------4--4--3-4-3--------|
D|----6--6--4-5-6--6--6-4-4--4--4--4--3-4-3--------| (2x)
A|----6--6--2-3-4--4--4-2-4--4--2--2--1-2-1--------|
E|----4--4----------------2--2---------------------|

Verse 3: "Parang karera ng auto.."

       G#        C#        F#      B - Bbm
e|---44444----4444--4----22222----222--111---------|
B|---44444----6666h76----22222----444--222---------|
G|---55555----6666--6----33333----444--333---------|
D|---66666----6666--6----44444----444--333---------|
A|---66666----4444--4----44444----222--111---------|
E|---44444----xxxx--x----22222----xxx--xxx---------|

"Ngunit katulad ng pagmamaneho.."

       G#        C#        F#     B (break!)
e|---44444----4444--4----22222----2----------------|
B|---44444----6666h76----22222----4----------------|
G|---55555----6666--6----33333----4----------------|
D|---66666----6666--6----44444----4-(break!)-------|
A|---66666----4444--4----44444----2----------------|
E|---44444----xxxx--x----22222----x----------------|

Chorus 2: "A cup in hand.."

        G#             C#            G#            C#
e|---4-4-4-4-4-----4-4-4-4-4------4-4-4-4-4-----4-4-4-4-4------|
B|---4-4-4-4-4-----6-6-6-6-7p6----4-4-4-4-4-----6-6-6-6-6------|
G|---5-5-5-5-5-----6-6-6-6-6------5-5-5-5-5-----6-6-6-6-6------|
D|---6-6-6-6-6-----6-6-6-6-6------6-6-6-6-6-----6-6-6-6-6------|
A|---6-6-6-6-6-----4-4-4-4-4------6-6-6-6-6-----4-4-4-4-4------|
E|---4-4-4-4-4-----x-x-x-x-x------4-4-4-4-4-----x-x-x-x-x------|

"Tumambay muna tayo.."
     
     Bbm -  Cm         C#        Bbm -  Cm      C#      Eb
e|---1-11--3-33----4-4-4-4-4-----1-11--3-33----4-4-4---6-6-6---|
B|---2-22--4-44----6-6-6-6-6-----2-22--4-44----6-6-6---8-8-8---|
G|---3-33--5-55----6-6-6-6-6-----3-33--5-55----6-6-6---8-8-8---|
D|---3-33--5-55----6-6-6-6-6-----3-33--5-55----6-6-6---8-8-8---|
A|---1-11--3-33----4-4-4-4-4-----1-11--3-33----4-4-4---6-6-6---|
E|---x-xx--x-xx----x-x-x-x-x-----x-xx--x-xx----x-x-x---x-x-x---|

Pre-solo:

      F    F#    G#    Bb
e|---x-x---x-x---x-x---x-x------|
B|---x-x---x-x---x-x---x-x------|
G|---x-x---x-x---x-x---x-x------|
D|---3-3---4-4---6-6---8-8------|
A|---3-3---4-4---4-4---8-8------|
E|---1-1---2-2---4-4---6-6------|

Solo:

e|--------------------------------------|-----------7-----|
B|--------------------------------------|--9-7--7-9---9b--|
G|-------------4-6b!---8p6-4-6-8-6------|-------6---------|
D|--6-6----4h6---------------------9p6--|-------6---------|
A|--6-6--6------------------------------|-----------------|
E|--4-4---------------------------------|-----------------|

e|------------------------------------------|
B|----------7-----9-7-----------------------|
G|----6-8-9---8--------8-6-4-----------6b---|
D|--9------------------------6-4-----4------|
A|-------------------------------5s6--------|
E|------------------------------------------|

e|--7s9-7-----------------------------------|
B|--------9-7---7-9b-(let ring)-------------|
G|------------8-----------------------------|
D|------------------------------------------|
A|------------------------------------------|
E|------------------------------------------|

Chorus 3: "A cup in hand.."

        G#             C#            G#            C#
e|---4-4-4-4-4-----4-4-4-4-4------4-4-4-4-4-----4-4-4-4-4------|
B|---4-4-4-4-4-----6-6-6-6-7p6----4-4-4-4-4-----6-6-6-6-6------|
G|---5-5-5-5-5-----6-6-6-6-6------5-5-5-5-5-----6-6-6-6-6------|
D|---6-6-6-6-6-----6-6-6-6-6------6-6-6-6-6-----6-6-6-6-6------|
A|---6-6-6-6-6-----4-4-4-4-4------6-6-6-6-6-----4-4-4-4-4------|
E|---4-4-4-4-4-----x-x-x-x-x------4-4-4-4-4-----x-x-x-x-x------|

"Tumambay muna tayo.."
     
     Bbm -  Cm        C#         Bbm -  Cm      C#        Eb
e|---1-11--3-33----4-4-4-4-4-----1-11--3-33----4-4-4---6-6-6-6-6-|
B|---2-22--4-44----6-6-6-6-6-----2-22--4-44----6-6-6---8-8-8-8-8-|
G|---3-33--5-55----6-6-6-6-6-----3-33--5-55----6-6-6---8-8-8-8-8-|
D|---3-33--5-55----6-6-6-6-6-----3-33--5-55----6-6-6---8-8-8-8-8-|
A|---1-11--3-33----4-4-4-4-4-----1-11--3-33----4-4-4---6-6-6-6-6-|
E|---x-xx--x-xx----x-x-x-x-x-----x-xx--x-xx----x-x-x---x-x-x-x-x-|

Then end with:

"One nescafe.."

    G#
e|--4------------------|
B|--4------------------|
G|--5------------------|
D|--6---(let ring)-----|
A|--6------------------|
E|--4------------------|


************************************

| s   slide
| !   break
| h   hammer-on
| p   pull-off
| x   Mute note
| b   Bend

************************************

This piecework is dedicated to Miss Bella and to my bandmates Rani, Louie, and Kessi.
Don't forget to rate! :)
 
 
Parokya Ni Edgar - Nescafe Tab :: indexed at Ultimate Guitar.
Nescafe tabs @ 911Tabs

Quick tip, so you can enjoy Nescafe Tab even more:

YourChords.com Guitar Chords and Tabs Archive is currently indexing over 240'000 songs from 21'000+ different artists. And new chords just keep on coming in, so you will surely never run out of them.

Show us your talent, perform Nescafe Tab!

Here you can post a video or audio performance. Tell me more ...
Where can we find your performance? Tell me more ...
Your comment:
Please, log in to post your performance.