Artists by letter: A B C D E F G H I J K L M N O P Q R S T U V W X Y Z 0-9

 
Part Ii Tab
Paramore - Part II
Tuning: drop D
Tabbed by: Gavin (youtube: crushgav)
updated 17-04-2013

watch my cover on youtube:

http://www.youtube.com/watch?v=4yFowXBuYc8

Intro 0:09 (distortion, slight delay)
e|----------------------------------------------------------------|
B|------------------------6-6--------------6-6-8------------------|
G|--15-15--9/12---------------9-7--2/5-----------7--14-^14/15-----|
D|----------------------------------------------------------------|
A|----------------------------------------------------------------|
D|----------------------------------------------------------------|

Verse (0:24) overdrive    Pre- Chorus (Oh glory..)
e|----------------------------------------8~-------8~--------------|
B|----------------------------------------10~------10~-------------|
G|----------------------------------------10~------10~-------------|
D|-8---10--8--5--3--5---------------------8~-------8~--------------|
A|-8---10--8--5--3--5-(2x)-----------------------------------------|
D|-----------------------------------------------------------------|

Chorus (distortion)
e|-------------------------------------------------------------------|
B|-------------------------------------------------------------------|
G|--7--------10-------10-------7-----------7--------10-------10--8---|
D|--7-(12x)--10-(12x)-8-(12x)--5-(12x)-----7-(12x)--10-(12x)-10--8---|
A|--5--------8--------8--------5-----------5--------8--------10--8---|
D|--------------------8--------5-----------------------------10--8---|

e|-----------------|
B|-----------------|
G|--15--15--9/12---|
D|-----------------|
A|-----------------|
D|-----------------|

Verse overdrive
e|----------------------------|
B|----------------------------|
G|----------------------------|
D|-8---10--8--5--3--5---------|
A|-8---10--8--5--3--5-(2x)----|
D|----------------------------|

Chorus (distortion)
e|-------------------------------------------------------------------|
B|-------------------------------------------------------------------|
G|--7--------10-------10-------7-----------7--------10-------10--8---|
D|--7-(12x)--10-(12x)-8-(12x)--5-(12x)-----7-(12x)--10-(12x)-10--8---|
A|--5--------8--------8--------5-----------5--------8--------10--8---|
D|--------------------8--------5-----------------------------10--8---|

Bridge (distortion, slight delay)
e|----------------------------------------------------------------------|
B|--------6-6-8----------------6-6------------6-6-8----------18-17------|
G|--2/5---------7--14-^14/15-------9-7--2/5---------7--14-14------------|
D|----------------------------------------------------------------------|
A|----------------------------------------------------------------------|
D|----------------------------------------------------------------------|

e|----------------------------------------------------------------------|
B|--------6-6-8----------------6-6------------6-6-8----------18-17------|
G|--------------7--14-^14/15-------9-7--2/5---------7--14-14------------|
D|----------------------------------------------------------------------|
A|----------------------------------------------------------------------|
D|----------------------------------------------------------------------|

Bridge guitar I LEAD (distortion, reverb and delay) tremelopick
e|----------------------------------------------------------------|
B|--1515151515 etc.. end 181818181717171715-----------------------|
G|----------------------------------------------------------------|
D|----------------------------------------------------------------|
A|----------------------------------------------------------------|
D|----------------------------------------------------------------|

Bridge guitar II RHYTM (distortion, slight delay)
e|-------------------------------|
B|-------------------------------|
G|--7--10--8--5------------------|
D|--7--10--8--5----(4x)----------|
A|--5--10--8--5------------------|
D|-----10--8--5------------------|

Outro 04:10 (distorion, tremelopick quietly)
e|-------------------------------------------------------------------|
B|-------------------------------------------------------------------|
G|-------------------------------------------------------------------|
D|--20202020202020202020202020202020202020202020 etc.-- end with 20~-|
A|-------------------------------------------------------------------|
D|-------------------------------------------------------------------|
 
 
Paramore - Part Ii Tab :: indexed at Ultimate Guitar.
Part Ii tabs @ 911Tabs

About the artist behind Part Ii Tab:

Paramore (IPA: /'pærəmɔər/) is an American rock band that formed in Franklin, Tennessee in 2004 consisting of Hayley Williams (lead vocals/keyboard), Josh Farro (lead guitar/backing vocals), Jeremy Davis (bass guitar), and Zac Farro (drums). The group released their debut album All We Know Is Falling in 2005, and their second album Riot! in 2007, which was certified gold in the US and the UK.

Indexed at Wikipedia.

Show us your talent, perform Part Ii Tab!

Here you can post a video or audio performance. Tell me more ...
Where can we find your performance? Tell me more ...
Your comment:
Please, log in to post your performance.