Artists by letter: A B C D E F G H I J K L M N O P Q R S T U V W X Y Z 0-9

My Heart Acoustic Tab (ver 2) - Paramore


 
My Heart Acoustic Tab
Hello I'm Taylor! I just wanted to tab this awesome song and tell you how to play my
favoritest song in the world! haha.
In order for this song to sound like it's supposed to, tune all your strings down a half
and your low E string down a whole step and a half.
High e-d#, b-a#, g-f#, d-c#, a-g#, Low E-c#. Here is a link to this version of the song. 
http://www.youtube.com/watch?v=DpksbortshA

Legend: H-hammer on.

Intro

e|--7------------7---------------------------------------------------------|
b|------9---9---------7---7----7H9--9--9--9--9---9H12--9--9--7--7--7-------|
g|----9---9---9-----9---9---9---------9--9--9--9---------9--9--9--9--9-----|
d|-------------------------------------------------------------------------|
a|-------------------------------------------------------------------------|
E|-------------------------------------------------------------------------|

e|------7-7-----7--------------|
b|--9-9------------------------|
g|----------9-9----9-----------|
d|-----------------------------|
a|-----------------------------|
E|-----------------------------|

Chorus/Refrain

e|------------------------------------------|
b|------------------------------------------|
g|---4------9----------------9-------9------|   X1
d|---2------9-------13-------9-------9------|
a|---2------7-------11-------6-------7------|
E|---2------7-------11-------6-------7------|

Verse 1

e|---------------------------------|
b|---------------------------------|
g|----------11------9--------------|
d|---13-----11------9--------------|   X6
a|---11------9------7--------------|
E|---11------9------7--------------|

Then repeat the Refrain/Chorus chord progression twice.
After that, play the verse chord progression 6 times.

Bridge ("My heart, it beats, beats for only youuu").
Play this progression after the second chorus.

e|-----------------------------------|
b|-----------------------------------|
g|-----------4------9----------------|
d|---13------2------9------11--------|    X4
a|---11------2------7-------9--------|
E|---11------2------7-------9--------|

On the fourth time it builds up into a different strumming pattern (same chord
for the fifth time you play the progression. It's kinda hard to explain but it's really 
to
haha. You play the different strumming pattern five times and after that the song fades 
with Hayley singing with the crowd :) If you haven't heard this version of the song you
definitely listen to it!!
 
 
Paramore - My Heart Acoustic Tab :: indexed at Ultimate Guitar.
My Heart Acoustic tabs @ 911Tabs

About the artist behind My Heart Acoustic Tab:

Paramore (IPA: /'pærəmɔər/) is an American rock band that formed in Franklin, Tennessee in 2004 consisting of Hayley Williams (lead vocals/keyboard), Josh Farro (lead guitar/backing vocals), Jeremy Davis (bass guitar), and Zac Farro (drums). The group released their debut album All We Know Is Falling in 2005, and their second album Riot! in 2007, which was certified gold in the US and the UK.

Indexed at Wikipedia.

Show us your talent, perform My Heart Acoustic Tab!

Here you can post a video or audio performance. Tell me more ...
Where can we find your performance? Tell me more ...
Your comment:
Please, log in to post your performance.