Artists by letter: A B C D E F G H I J K L M N O P Q R S T U V W X Y Z 0-9

 
Misguided Ghosts Tab
-------------------------------------------------------------------------------
                             Misguided - Paramore
-------------------------------------------------------------------------------
Tabbed by:NaughtyPsycho
Email:[email protected]

Tuning:Standard

Verse:

e|[--0-------3---]----------------------------------|
B|[1---1-1p0---0-]-x2------0---0h1-0-----0---0h1-3-1|
G|-----------------------0---0-------0--------------| x 4
D|-------------------------------------2---2--------|
A|--------------------------------------------------|
E|--------------------------------------------------|

Bridge:

e|12-------12------12-------12------10--------10-----8-------8-----10-----10--7-----7--|
B|------13---------------13---------------12---------------8------------8---------8----|
G|12-12-------12---12-12-------12---12-12-------12---10-10-----10--7--7-------7-7-----7|
D|-------------------------------------------------------------------------------------|
A|-------------------------------------------------------------------------------------|
E|-------------------------------------------------------------------------------------|

e|12-------12------12-------12------10--------10-----8-------8-----10-----10-----7|
B|------13---------------13---------------12---------------8------------8--------8|
G|12-12-------12---12-12-------12---12-12-------12---10-10-----10--7--7------7---7|
D|--------------------------------------------------------------------------------|
A|--------------------------------------------------------------------------------|
E|--------------------------------------------------------------------------------|

Chorus:

e|----3-0~------------------3-0~--------|
B|5-3-3-1~---5-3--------5-3-3-1~---5-3--|
G|5-4--------5-4-4-5~---5-4--------5-4-4|
D|---------------5-7~------------------5|
A|--------------------------------------|
E|--------------------------------------|

Verse:

e|[--0-------3---]----------------------------------|
B|[1---1-1p0---0-]-x2------0---0h1-0-----0---0h1-3-1|
G|-----------------------0---0-------0--------------| x 3
D|-------------------------------------2---2--------|
A|--------------------------------------------------|
E|--------------------------------------------------|

Bridge:

e|12-------12------12-------12------10--------10-----8-------8-----10-----10--7-----7--|
B|------13---------------13---------------12---------------8------------8---------8----|
G|12-12-------12---12-12-------12---12-12-------12---10-10-----10--7--7-------7-7-----7|
D|-------------------------------------------------------------------------------------|
A|-------------------------------------------------------------------------------------|
E|-------------------------------------------------------------------------------------|

e|12-------12------12-------12------10--------10-----8-------8-----10-----10-----7|
B|------13---------------13---------------12---------------8------------8--------8|
G|12-12-------12---12-12-------12---12-12-------12---10-10-----10--7--7------7---7|
D|--------------------------------------------------------------------------------|
A|--------------------------------------------------------------------------------|
E|--------------------------------------------------------------------------------|

Chorus:

e|----3-0~------------------3-0~-----------|
B|5-3-3-1~---5-3--------5-3-3-1~---5-3-----|
G|5-4--------5-4-4-5~---5-4--------5-4-4-5~|
D|---------------5-7~------------------5-7~|
A|-----------------------------------------|
E|-----------------------------------------|

e|----3-0~------------------3-0~--------------|
B|5-3-3-1~---5-3--------5-3-3-1~--------------|
G|5-4--------5-4-4-5~---5-4--------5-4-7-9--10|
D|---------------5-7~--------------7-5-9-10-12|
A|--------------------------------------------|
E|--------------------------------------------|

Outro:

e|[--0-------3---]----------------------------------|
B|[1---1-1p0---0-]-x2------0---0h1-0-----0---0h1-3-1|
G|-----------------------0---0-------0--------------| x 2
D|-------------------------------------2---2--------|
A|--------------------------------------------------|
E|--------------------------------------------------|

e|[--0-------3---]---------------------------------------|
B|[1---1-1p0---0-]-x2------0---0h1-0-----0---0h1-3-1-----|
G|-----------------------0---0-------0----------------10~| 
D|-------------------------------------2---2-------------|
A|----------------------------------------------------10~|
E|-------------------------------------------------------|
************************************

| /   slide up
| \   slide down
| h   hammer-on
| p   pull-off
| ~   vibrato
| +   harmonic
| x   Mute note
| b   Bend
| pb  Pre-bend
| br  Bend release
| pbr Pre-bend release
| brb Bend release bend

************************************
 
 
Paramore - Misguided Ghosts Tab :: indexed at Ultimate Guitar.
Misguided Ghosts tabs @ 911Tabs

About the artist behind Misguided Ghosts Tab:

Paramore (IPA: /'pærəmɔər/) is an American rock band that formed in Franklin, Tennessee in 2004 consisting of Hayley Williams (lead vocals/keyboard), Josh Farro (lead guitar/backing vocals), Jeremy Davis (bass guitar), and Zac Farro (drums). The group released their debut album All We Know Is Falling in 2005, and their second album Riot! in 2007, which was certified gold in the US and the UK.

Indexed at Wikipedia.

Show us your talent, perform Misguided Ghosts Tab!

Here you can post a video or audio performance. Tell me more ...
Where can we find your performance? Tell me more ...
Your comment:
Please, log in to post your performance.