Artists by letter: A B C D E F G H I J K L M N O P Q R S T U V W X Y Z 0-9

 
Misery Buisnes Acoustic Tab
-------------------------------------------------------------------------------
                             SONG NAME - Band Name
-------------------------------------------------------------------------------
Tabbed by:
This is the tab for the rhythm guitar

Tuning: The tuning is drop c# so: C#
                                  G#
                                  C#
                                  F#
                                  A#
                                  d#
You just tune every string down half a step but make sure that you tune the lower E string
and the D string
the same

Riff:

C#|-4-4-X-4---------2-2-X-2-2-2-X-2--4-4-X-4---------0-0-X-0-0-0-X-0----------|
G#|-4-4-X-4-2-4-2-4-2-2-X-2-2-2-X-2--4-4-X-4-2-4-2-4-0-0-X-0-0-0-X-0----------|
C#|-4-4-X-4---------2-2-X-2-2-2-X-2--4-4-X-4---------0-0-X-0-0-0-X-0----------|
F#|---------------------------------------------------------------------------|
A#|---------------------------------------------------------------------------|
d#|---------------------------------------------------------------------------|

C#|-4-4-X-4-------2-2-X-2-2-2-X-2--4-4-X-4---------7-7-7-7-6-6-----------------|
G#|-4-4-X-4-2-4-2-2-2-X-2-2-2-X-2--4-4-X-4-2-4-2-4-7-7-7-7-6-6-----------------|
C#|-4-4-X-4-------2-2-X-2-2-2-X-2--4-4-X-4---------9-9-9-9-9-9-----------------|
F#|----------------------------------------------------------------------------|
A#|----------------------------------------------------------------------------|
d#|----------------------------------------------------------------------------|

Verse 1:

C#|-4-4-x-4---------2-2-x-2-2-2-x-2--4-4-x-4---------0-0-x-0-0-0-x-0----------|
G#|---------2-4-2-4--------------------------2-4-2-4--------------------------|
C#|---------------------------------------------------------------------------|
F#|---------------------------------------------------------------------------|
A#|---------------------------------------------------------------------------|
d#|---------------------------------------------------------------------------|

C#|-4-4-x-4---------2-2-x-2-2-2-x-2-4-4-x-4---------7-7-7-7-6-6---------------|
G#|---------2-4-2-4-------------------------2-4-2-4---------------------------|
C#|---------------------------------------------------------------------------|
F#|---------------------------------------------------------------------------|
A#|---------------------------------------------------------------------------|
d#|---------------------------------------------------------------------------|

Play verse 1 twice

Break:

C#|-4-4-4-4-4-4-4-4-2-2-2-2-2-------------------------------------------------|
G#|-4-4-4-4-4-4-4-4-2-2-2-2-2-------------------------------------------------|
C#|-4-4-4-4-4-4-4-4-2-2-2-2-2-------------------------------------------------|
F#|---------------------------------------------------------------------------|
A#|---------------------------------------------------------------------------|
d#|---------------------------------------------------------------------------|

Chorus 1:

C#|-0-0-0-0-0-0--7-7-7-7-7-7--2-2-2-2-2-2--4-4-4-4-4-4-4----------------------|
G#|-0-0-0-0-0-0--7-7-7-7-7-7--2-2-2-2-2-2--4-4-4-4-4-4-4----------------------|
C#|-4-4-4-4-4-4--7-7-7-7-7-7--4-4-4-4-4-4--7-7-7-7-6-6-6----------------------|
F#|-x-x-x-x-x-x--6-6-6-6-6-6--x-x-x-x-x-x--x-x-x-x-x-x-x----------------------|
A#|-7-7-7-7-7-7--0-0-0-0-0-0--0-0-0-0-0-0--0-0-0-0-0-0-0----------------------|
d#|-0-0-0-0-0-0--0-0-0-0-0-0--0-0-0-0-0-0--0-0-0-0-0-0-0----------------------|

Chorus 2:

C#|-0-x-0-x-0-x-0-x-0-x-0-x-0-4-4-2-2-x-2-x-2-x-2-x-2-x-2-4-4-0---------------|
G#|-0-x-0-x-0-x-0-x-0-x-0-x-0-4-4-2-2-x-2-x-2-x-2-x-2-x-2-4-4-0---------------|
C#|-0-x-0-x-0-x-0-x-0-x-0-x-0-4-4-2-2-x-2-x-2-x-2-x-2-x-2-4-4-0---------------|
F#|-2-x-2-x-2-x-2-x-2-x-2-x-2-2-2-----------------------------2---------------|
A#|---------------------------------------------------------------------------|
d#|---------------------------------------------------------------------------|

C#|-0-x-0-x-0-x-0-x-0-x-0-x-0-4-4-2-2-x-2-x-2-x-2-7-7-7-7-6-------------------|
G#|-0-x-0-x-0-x-0-x-0-x-0-x-0-4-4-2-2-x-2-x-2-x-2-7-7-7-7-6-------------------|
C#|-0-x-0-x-0-x-0-x-0-x-0-x-0-4-4-2-2-x-2-x-2-x-2-9-9-9-9-9-------------------|
F#|-2-x-2-x-2-x-2-x-2-x-2-x-2-2-2---------------------------------------------|
A#|---------------------------------------------------------------------------|
d#|---------------------------------------------------------------------------|

Chorus 3:

C#|-4-4-X-4---------2-2-X-2-2-2-X-2--4-4-X-4---------0-0-0-0-0----------------|
G#|-4-4-X-4-2-4-2-4-2-2-X-2-2-2-X-2--4-4-X-4-2-4-2-4-0-0-0-0-0----------------|
C#|-4-4-X-4---------2-2-X-2-2-2-X-2--4-4-X-4---------0-0-0-0-0----------------|
F#|---------------------------------------------------------------------------|
A#|---------------------------------------------------------------------------|
d#|---------------------------------------------------------------------------|

Verse 1:

C#|-4-4-x-4---------2-2-x-2-2-2-x-2--4-4-x-4---------0-0-x-0-0-0-x-0----------|
G#|---------2-4-2-4--------------------------2-4-2-4--------------------------|
C#|---------------------------------------------------------------------------|
F#|---------------------------------------------------------------------------|
A#|---------------------------------------------------------------------------|
d#|---------------------------------------------------------------------------|

C#|-4-4-x-4---------2-2-x-2-2-2-x-2-4-4-x-4---------7-7-7-7-6-6---------------|
G#|---------2-4-2-4-------------------------2-4-2-4---------------------------|
C#|---------------------------------------------------------------------------|
F#|---------------------------------------------------------------------------|
A#|---------------------------------------------------------------------------|
d#|---------------------------------------------------------------------------|

Play verse 1 twice

Break:

C#|-4-4-4-4-4-4-4-4-2-2-2-2-2-------------------------------------------------|
G#|-4-4-4-4-4-4-4-4-2-2-2-2-2-------------------------------------------------|
C#|-4-4-4-4-4-4-4-4-2-2-2-2-2-------------------------------------------------|
F#|---------------------------------------------------------------------------|
A#|---------------------------------------------------------------------------|
d#|---------------------------------------------------------------------------|

Chorus 1:

C#|-0-0-0-0-0-0--7-7-7-7-7-7--2-2-2-2-2-2--4-4-4-4-4-4-4----------------------|
G#|-0-0-0-0-0-0--7-7-7-7-7-7--2-2-2-2-2-2--4-4-4-4-4-4-4----------------------|
C#|-4-4-4-4-4-4--7-7-7-7-7-7--4-4-4-4-4-4--7-7-7-7-6-6-6----------------------|
F#|-x-x-x-x-x-x--6-6-6-6-6-6--x-x-x-x-x-x--x-x-x-x-x-x-x----------------------|
A#|-7-7-7-7-7-7--0-0-0-0-0-0--0-0-0-0-0-0--0-0-0-0-0-0-0----------------------|
d#|-0-0-0-0-0-0--0-0-0-0-0-0--0-0-0-0-0-0--0-0-0-0-0-0-0----------------------|

Chorus 2:

C#|-0-x-0-x-0-x-0-x-0-x-0-x-0-4-4-2-2-x-2-x-2-x-2-x-2-x-2-4-4-0---------------|
G#|-0-x-0-x-0-x-0-x-0-x-0-x-0-4-4-2-2-x-2-x-2-x-2-x-2-x-2-4-4-0---------------|
C#|-0-x-0-x-0-x-0-x-0-x-0-x-0-4-4-2-2-x-2-x-2-x-2-x-2-x-2-4-4-0---------------|
F#|-2-x-2-x-2-x-2-x-2-x-2-x-2-2-2-----------------------------2---------------|
A#|---------------------------------------------------------------------------|
d#|---------------------------------------------------------------------------|

C#|-0-x-0-x-0-x-0-x-0-x-0-x-0-4-4-2-2-x-2-x-2-x-2-7-7-7-7-6-------------------|
G#|-0-x-0-x-0-x-0-x-0-x-0-x-0-4-4-2-2-x-2-x-2-x-2-7-7-7-7-6-------------------|
C#|-0-x-0-x-0-x-0-x-0-x-0-x-0-4-4-2-2-x-2-x-2-x-2-9-9-9-9-9-------------------|
F#|-2-x-2-x-2-x-2-x-2-x-2-x-2-2-2---------------------------------------------|
A#|---------------------------------------------------------------------------|
d#|---------------------------------------------------------------------------|

Bridge:

C#|---------------------------------------------------------------------------|
G#|---------------------------------------------------------------------------|
C#|---------------------------------------------------------------------------|
F#|-2------2------2-----2---1---2------2------2------2---1--------------------|
A#|-----2-----2------0--------------2------2------0---------------------------|
d#|---0-----0------0--------------0------0------0-----------------------------|

C#|---------------------------------------------------------------------------|
G#|---------------------------------------------------------------------------|
C#|---------------------------------------------------------------------------|
F#|-2-----2---------2-----2---------2-----2---------2-----2-------------------|
A#|---2-----2---2-----2-----2---2-----0-----0---0-----0-----0---0-------------|
d#|-----0-----0---0-----0-----0---0-----0-----0---0-----0-----0---0-----------|

Solo:

C#|-0-0-0-0-0-0-0-4-4-2-2-2-2-2-2-2-4-4-0-0-0-0-0-0-0-0-4-4-2-2-2-2-2-7-7-7-6-|
G#|-0-0-0-0-0-0-0-4-4-2-2-2-2-2-2-2-4-4-0-0-0-0-0-0-0-0-4-4-2-2-2-2-2-7-7-7-6-|
C#|-0-0-0-0-0-0-0-4-4-2-2-2-2-2-2-2-4-4-0-0-0-0-0-0-0-0-4-4-2-2-2-2-2-9-9-9-9-|
F#|-2-2-2-2-2-2-2-2-2-------------------2-2-2-2-2-2-2-2-2-2-------------------|
A#|---------------------------------------------------------------------------|
d#|---------------------------------------------------------------------------|

Chorus 1:

C#|-0-0-0-0-0-0--7-7-7-7-7-7--2-2-2-2-2-2--4-4-4-4-4-4-4----------------------|
G#|-0-0-0-0-0-0--7-7-7-7-7-7--2-2-2-2-2-2--4-4-4-4-4-4-4----------------------|
C#|-4-4-4-4-4-4--7-7-7-7-7-7--4-4-4-4-4-4--7-7-7-7-6-6-6----------------------|
F#|-x-x-x-x-x-x--6-6-6-6-6-6--x-x-x-x-x-x--x-x-x-x-x-x-x----------------------|
A#|-7-7-7-7-7-7--0-0-0-0-0-0--0-0-0-0-0-0--0-0-0-0-0-0-0----------------------|
d#|-0-0-0-0-0-0--0-0-0-0-0-0--0-0-0-0-0-0--0-0-0-0-0-0-0----------------------|

Chorus 2:

C#|-0-x-0-x-0-x-0-x-0-x-0-x-0-4-4-2-2-x-2-x-2-x-2-x-2-x-2-4-4-0---------------|
G#|-0-x-0-x-0-x-0-x-0-x-0-x-0-4-4-2-2-x-2-x-2-x-2-x-2-x-2-4-4-0---------------|
C#|-0-x-0-x-0-x-0-x-0-x-0-x-0-4-4-2-2-x-2-x-2-x-2-x-2-x-2-4-4-0---------------|
F#|-2-x-2-x-2-x-2-x-2-x-2-x-2-2-2-----------------------------2---------------|
A#|---------------------------------------------------------------------------|
d#|---------------------------------------------------------------------------|

C#|-0-x-0-x-0-x-0-x-0-x-0-x-0-4-4-2-2-x-2-x-2-x-2-7-7-7-7-6-------------------|
G#|-0-x-0-x-0-x-0-x-0-x-0-x-0-4-4-2-2-x-2-x-2-x-2-7-7-7-7-6-------------------|
C#|-0-x-0-x-0-x-0-x-0-x-0-x-0-4-4-2-2-x-2-x-2-x-2-9-9-9-9-9-------------------|
F#|-2-x-2-x-2-x-2-x-2-x-2-x-2-2-2---------------------------------------------|
A#|---------------------------------------------------------------------------|
d#|---------------------------------------------------------------------------|

Chorus 3:

C#|-4-4-X-4---------2-2-X-2-2-2-X-2--4-4-X-4---------0-0-0-0-0----------------|
G#|-4-4-X-4-2-4-2-4-2-2-X-2-2-2-X-2--4-4-X-4-2-4-2-4-0-0-0-0-0----------------|
C#|-4-4-X-4---------2-2-X-2-2-2-X-2--4-4-X-4---------0-0-0-0-0----------------|
F#|---------------------------------------------------------------------------|
A#|---------------------------------------------------------------------------|
d#|---------------------------------------------------------------------------|

That is how you play the full song :)


************************************

| /   slide up
| \   slide down
| h   hammer-on
| p   pull-off
| ~   vibrato
| +   harmonic
| x   Mute note
| b   Bend
| pb  Pre-bend
| br  Bend release
| pbr Pre-bend release
| brb Bend release bend

************************************
 
 
Paramore - Misery Buisnes Acoustic Tab :: indexed at Ultimate Guitar.
Misery Buisnes Acoustic tabs @ 911Tabs

About the artist behind Misery Buisnes Acoustic Tab:

Paramore (IPA: /'pærəmɔər/) is an American rock band that formed in Franklin, Tennessee in 2004 consisting of Hayley Williams (lead vocals/keyboard), Josh Farro (lead guitar/backing vocals), Jeremy Davis (bass guitar), and Zac Farro (drums). The group released their debut album All We Know Is Falling in 2005, and their second album Riot! in 2007, which was certified gold in the US and the UK.

Indexed at Wikipedia.

Show us your talent, perform Misery Buisnes Acoustic Tab!

Here you can post a video or audio performance. Tell me more ...
Where can we find your performance? Tell me more ...
Your comment:
Please, log in to post your performance.