Artists by letter: A B C D E F G H I J K L M N O P Q R S T U V W X Y Z 0-9

 
Escape Route Tab
Like our band page :https://www.facebook.com/SinceAstrid

Artist:	Paramore
Song:	Escape Route
Type:	Guitar Tab
Part:	whole song
Tuning:	C# G# C# F# A# D#
Difficulty:	intermediate
Transcribed by Francis Twister sario

Escape Route By Paramore

Tuning- Drop C#

Intro

|-----------------------------------|-----------------------------------|
|-----------------------------------|-----------------------------------|
|-----------------------------------|-----------------------------------|
|-----7---0------11--------12/------|------7---0------11----------------|
|-----------------------------------|---------------------------12/-----|
|-4-4---5----7-7-----7/9------------|--4-4---5----7-7-----7/9-----------|
|
|-----------------------------------|-----------------------------------|
|-----------------------------------|-----------------------------------|
|-----------------------------------|-----------------------------------|
|-----------------------------------|-----------------------------------|
|-----------------------------------|-----------------------------------|
|-----------------------------------|-----------------------------------|

|-----------------------------------|-----------------------------------|
|-----------------------------------|-----------------------------------|
|-----------------------------------|-----------------------------------|
|-----7---0------11--------12/------|------7---0------11----------------|
|-----------------------------------|-----------------------------------|
|-4-4---5----7-7-----7/9------------|--4-4---5----7-7-----7-------------|
|
|-----------------------------------|-----------------------------------|
|-----------------------------------|-----------------------------------|
|-----------------------------------|-----------------------------------|
|-----------------------------------|-----------------------------------|
|-----------------------------------|-----------------------------------|
|-----------------------------------|-----------------------------------|

Drumbeats

|-----------------------------------|-----------------------------------|
|-----------------------------------|-----------------------------------|
|-----------------------------------|-----------------------------------|
|-----7---0------11--------12/------|------7---0------11----------------|
|-----------------------------------|---------------------------12/-----|
|-4-4---5----7-7-----7/9------------|--4-4---5----7-7-----7/9-----------|
|
|-----------------------------------|-----------------------------------|
|-----------------------------------|-----------------------------------|
|-1414-14-1616-181818-18-1919-------|--1414-14--1616-9999--11-11--------|
|-----------------------------------|-----------------------------------|
|-1212-12-1414-161616-16-1717-------|--1212-12--1414-7777--9---9--------|
|-----------------------------------|-----------------------------------|

|-----------------------------------|-----------------------------------|
|-----------------------------------|-----------------------------------|
|-----------------------------------|-----------------------------------|
|-----7---0------11--------12/------|------7---0------11----------------|
|-----------------------------------|---------------------------12/-----|
|-4-4---5----7-7-----7/9------------|--4-4---5----7-7-----7/9-----------|
|
|-----------------------------------|-----------------------------------|
|-----------------------------------|-----------------------------------|
|-1414-14-1616-181818-18-1919-------|--1414-14--1616-9999--7---7--------|
|-----------------------------------|-----------------------------------|
|-1212-12-1414-161616-16-1717-------|--1212-12--1414-7777--5---5--------|
|-----------------------------------|-----------------------------------|

Verse-

I- Bass

II-

|-----------------------------------|-----------------------------------|
|-----------------------------------|-----------------------------------|
|-----------------------------------|-----------------------------------|
|-----7---0------11-----------------|------7---0------11----------------|
|--------------------------12/------|-----------------------------------|
|-4-4---5----7-7-----7/9------------|--4-4---5----7-7-----7---0-0-------|

|-----------------------------------|-----------------------------------|
|-----------------------------------|-----------------------------------|
|-----------------------------------|-----------------------------------|
|-----7---0------11-----------------|------7---0------11----------------|
|--------------------------12/------|-----------------------------------|
|-4-4---5----7-7-----7/9------------|--4-4---5----7-7-----7---0-0-------|

|-----------------------------------|
|-----------------------------------|
|-----------------------------------|
|-----7---0------11-------0-0-------|
|-------------------------0-0-------|
|-4-4---5----7-7-----7----0-0-------|

Chorus-
|----------------------------------------|
|----------------------------------------|
|----------------------------------------|
|-55555555-00000000-77777777-9999-4444---|
|-55555555-00000000-77777777-9999-4444---|
|-55555555-00000000-77777777-9999-4444---|

|----------------------------------------|
|----------------------------------------|
|----------------------------------------|
|--5555555-00000000-77777777-77777777----|
|--5555555-00000000-77777777-77777777----|
|--5555555-00000000-77777777-77777777----|

|----------------------------------------------------------|
|----------------------------------------------------------|
|------------------------(elevens)-------------------------|
|-55555555-77777777-9999-11111111-0000-55555555-77777777---|
|-55555555-77777777-9999-11111111-0000-55555555-77777777---|
|-55555555-77777777-9999-11111111-0000-55555555-77777777---|

|-----------------------------------|-----------------------------------|
|-----------------------------------|-----------------------------------|
|-----------------------------------|-----------------------------------|
|-----7---0------11--------0-0------|------7---0------11-------0-0------|
|--------------------------0-0------|--------------------------0-0------|
|-4-4---5----7-7-----7-----0-0------|--4-4---5----7-7-----7----0-0------|
|
|-----------------------------------|-----------------------------------|
|-----------------------------------|-----------------------------------|
|-----------------------------------|--1414-14--1616-9999--7---7--------|
|-----------------------------------|-----------------------------------|
|-----------------------------------|--1212-12--1414-7777--5---5--------|
|-----------------------------------|-----------------------------------|

Verse-
same

Bridge_

|-----------------------------------|-----------------------------------|
|-----------------------------------|-----------------------------------|
|-----------------------------------|--7~-------9~----1111xxxx-1111xxxx-|
|-----------------------------------|---------------------xxxx-----xxxx-|
|-----------------------------------|--5~-------7~----9-9-xxxx-9-9-xxxx-|
|-----------------------------------|-----------------------------------|
|
|-----------------------------------|-----------------------------------|
|-----------------------------------|-----------------------------------|
|-----------------------------------|-----------------------------------|
|---------------------0-0----0-0----|-----------------0-0-xxxx-0-0-xxxx-|
|---------------------0-0----0-0----|-----------------0-0-xxxx-0-0-xxxx-|
|--9~-------5~--------0-0----0-0----|--9~-------5~----0-0-xxxx-0-0-xxxx-|

(8t)= 8 times you do picking(down) 
(4t)= 4 times you do picking etc...

|-----------------------------------------------------22(2t)------------|
|--------------19(4t)--------19(2t)-------22(2t)----------------22(2t)--|
|-19(8t)-21(4t)--------19(2t)------19(2t)-------19(2t)----19(2t)--------|
|-----------------------------------------------------------------------|
|-----------------------------------------------------------------------|
|-----------------------------------------------------------------------|

|---------------------------------------------------17(8t)--------------|
|---------------19(2t)------19(2t)------------15(4t)--------------------|
|-19(6t)-21(4t)-------21(2t)------------16(4t)--------------------------|
|-----------------------------------------------------------------------|
|-----------------------------------------------------------------------|
|-----------------------------------------------------------------------|

Do chorus 2x. Ill update guitar 2 
 
 
Paramore - Escape Route Tab :: indexed at Ultimate Guitar.
Escape Route tabs @ 911Tabs

About the artist behind Escape Route Tab:

Paramore (IPA: /'pærəmɔər/) is an American rock band that formed in Franklin, Tennessee in 2004 consisting of Hayley Williams (lead vocals/keyboard), Josh Farro (lead guitar/backing vocals), Jeremy Davis (bass guitar), and Zac Farro (drums). The group released their debut album All We Know Is Falling in 2005, and their second album Riot! in 2007, which was certified gold in the US and the UK.

Indexed at Wikipedia.

Show us your talent, perform Escape Route Tab!

Here you can post a video or audio performance. Tell me more ...
Where can we find your performance? Tell me more ...
Your comment:
Please, log in to post your performance.