Artists by letter: A B C D E F G H I J K L M N O P Q R S T U V W X Y Z 0-9

Slide Away Acoustic Chords (ver 3) - Oasis


 
Slide Away Acoustic Chords
-------------------------------------------------------------------------------
                             SLIDE AWAY - Oasis/Noel Gallagher & Gem Archer
-------------------------------------------------------------------------------
Tabbed by: João Valério
Based a bit on TheCatknTheHat's tab


Slide Away from the Sitting Here in Silence Acoustic concert
Written by: Noel Gallagher


Use a capo on the 4th fret
Chords and tab relative to capo


Chords:         
Em     = 022000
Em7    = 020000
Em6    = 042000
Cmaj7  = 032000
G      = 320033
D      = xx0232
Dsus2  = 000320
Cadd9  = x23030
Em7*   = 022030
Asus4  = x02230
B11    = x21200


Intro:


Gem plays this in the intro, verses and bridge while noel plays the chords:

       Em       Em7       Em6     Cmaj7  
e|------0----------0--------0--------0------|
B|----0---0------0---0----0---0----0---0----|
G|----------------------2--------0----------|
D|--2---------0-----------------------------|
A|------------------------------------------|
E|------------------------------------------|


Verse 1:

Em         Em7    Em6               Cmaj7
Slide away,   and give it all you've got

Em       Em7  Em6           Cmaj7
My today,     fell in from the top

Em             Em7    Em6               Cmaj7
I dream of you,   and all  the things you say

Em                   Em7     Em6  Cmaj7
  I wonder where you are now


Verse 2:

Em           Em7  Em6            Cmaj7
Hold me down,     all the world's asleep

Em             Em7    Em6         Cmaj7
I need you now,   you got  me on my knees

Em             Em7       Em6           Cmaj7
I dream of you,   and we talk of growing old

Em              Em7         Em6  Cmaj7
  But you said please don't


Bridge:

    Em6    Cmaj7
So, Slide in Baby

  Em6        Cmaj7
Together we'll fly

Em6      Cmaj7
I    tried praying

      Em6                             Dsus2
But I don't know what you're saying to me


Chorus:

                G
Now that you're mine

             D                   Cadd9
we'll find a way  of chasing the sun

              Em7*                  D
Let me be the one, that shines with you

       Asus4                          Cadd9
In the morning, we don't know what to do

               G                  D
We're two of a kind, we'll find a way

                 Cadd9
To do what we've done

              Em7*                  D
Let me be the one, that shines with you

                  Cadd9  Asus4
And we can slide away

       Cadd9  Asus4
Slide away

       Cadd9  Asus4
Slide away

D    B11
Away


Solo(Relative to capo):


e|------------0--------------------------------------------------0------------------------------------|
B|--------------0------------------------------------------------0------------------------------------|
G|-----/4~--------2-0----0h2-0---------------0-0h2p0-------------0-------/4-2~-0-----0h2-0------------|
D|------------------------------2~-------0h2---------2-0---0h2---2--------------------------2~--------|
A|-------------------------------------------------------2--------------------------------------------|
E|----------------------------------------------------------------------------------------------------|

e|-----------------------------0----------------------------------------------0-----------------------|
B|-----------------------------0----------------------------------------------0-----------------------|
G|-----------------------14b16-----16r14-12-------------------14--12h14-14b16-----16r14-12------------|
D|-------------------------------------------14~----------12h14-------------------------------14~-----|
A|------1-0-----------------------------------------12h14---------------------------------------------|
E|----------3/5p0-------------------------------------------------------------------------------------|

e|----------------------------------------------------------------------------------------------------|
B|----------------------------------------------------------------------------------------------------|
G|--------------12------------------------------------------------------------------------------------|
D|--------12h14---------------------------------------------------------------------------------------|
A|-12h14-------------14---12---10--------10h12-10\----------------------------------------------------|
E|----------------------------------------------------------------------------------------------------|

                                       Slide out from the last note, play the Em chord then hold it
                                                  



Start playing this after the second chord progression and go until the chorus:

       Em7       Em6      Cmaj7     Em
e|------0----------0--------0--------0------|
B|----0---0------0---0----0---0----0---0----|
G|------------2---------0-------------------|
D|--0----------------------------2----------|
A|------------------------------------------|
E|------------------------------------------|



Verse 3:

Em         Em7    Em6              Cmaj7
Slide away,   and give it all you've got

Em       Em7  Em6             Cmaj7
My today,     fell in from the top

Em             Em7    Em6                Cmaj7
I dream of you,   and all  the things you say

Em                   Em7     Em6  Cmaj7
  I wonder where you are now


Bridge:

    Em6    Cmaj7
So, Slide in Baby

  Em6        Cmaj7
Together we'll fly


Em6      Cmaj7
I    tried praying

      Em6                            Dsus2
But I don't know what you're saying to me


Chorus:

                G
Now that you're mine

             D                   Cadd9
we'll find a way  of chasing the sun

              Em7*                  D
Let me be the one, that shines with you

       Asus4                          Cadd9
In the morning, we don't know what to do

               G                  D
We're two of a kind, we'll find a way

                 Cadd9
To do what we've done

              Em7*                  D
Let me be the one, that shines with you

                  Cadd9  Asus4
And we can slide away

       Cadd9  Asus4
Slide away

       Cadd9  Asus4
Slide away

       Cadd9  Asus4
Slide away


Outro:

Cadd9
     I don't know, I don't care

Asus4
All  I know is you take me there

Cadd9
     I don't know, I don't care

Asus4
All  I know is you take me there

Cadd9
     I don't know, I don't care

Asus4
All  I know is you take me there

Cadd9
     I don't know, I don't care

Asus4
All  I know is you take me there

Cadd9
Take  me there, take me there

Asus4
Take  me there, take me there

Cadd9
Take  me there, take me there

Asus4
All  I know is you take me there

Cadd9
Take  me there, take me there

Asus4
Take  me there, take me there

Cadd9
Take  me there, take me theeeeeeeeeeeeeeeeeeeeeeere


Cadd9  Asus4  x2


       Cadd9
Slide away
       Asus4
Slide away, yeah
       Cadd9
Slide away
       Asus4
Slide away, yeah
       Cadd9
Slide away
       Asus4
Slide away
       Cadd9
Slide away
       Asus4
Slide away...


Then finish with Cadd9


************************************

| /   slide up
| \   slide down
| h   hammer-on
| p   pull-off
| ~   vibrato
| +   harmonic
| x   Mute note
| b   Bend
| pb  Pre-bend
| br  Bend release
| pbr Pre-bend release
| brb Bend release bend

************************************************************************
 
 
Oasis - Slide Away Acoustic Chords :: indexed at Ultimate Guitar.
Slide Away Acoustic tabs @ 911Tabs

About the artist behind Slide Away Acoustic Chords:

Oasis are an English rock band that formed in Manchester in 1991. The group was formed by Liam Gallagher (lead vocals), Paul Arthurs (guitar), Paul McGuigan (bass) and Tony McCarroll (drums), who were soon joined by Liam's older brother Noel Gallagher (lead guitar, vocals). Oasis have sold more than 50 million albums worldwide,[1] and have had eight UK number one singles. The Gallagher brothers are the band's leading songwriters and the only continual members. The present lineup is completed by rhythm/lead guitarist and songwriter Gem Archer, guitarist and songwriter Andy Bell and unofficial drummer Zak Starkey.

The band initially gained prominence performing on the Manchester club circuit. They were signed to independent record label Creation Records and afterwards released their debut album Definitely Maybe in 1994. The following year, the band recorded (What's the Story) Morning Glory? (1995) with their new drummer Alan White, whilst rivalling with Britpop peers Blur in the charts. The Gallagher brothers were featured regularly in tabloid newspapers for their sibling rivalry and wild lifestyles, cultivating reputations both as bad boys and as a band of the people. At the height of their fame, Oasis' third album, Be Here Now (1997), became the fastest-selling album in UK chart history, but lost much of its long-term appeal after the initial hype and positive reception tempered.

While recording their fourth album Standing on the Shoulder of Giants (2000) in 1999, Oasis lost two founding members and suffered a notable decline in popularity in America. The band added replacements Gem Archer and Andy Bell for Heathen Chemistry (2002). Their sixth album Don't Believe the Truth (2005) with Zak Starkey, despite turbulent recording, became their best-selling and best-received album in a decade. The following year, the band released a compilation album entitled Stop the Clocks. In February 2007, Oasis received the BRIT Award for outstanding contribution to music.

The seventh studio album by the band is reported to be complete and, although an official release date has not been confirmed, both Liam and Noel Gallagher have been quoted as saying that the album is due out in September 2008. [2] [3]

Indexed at Wikipedia.

Show us your talent, perform Slide Away Acoustic Chords!

Here you can post a video or audio performance. Tell me more ...
Where can we find your performance? Tell me more ...
Your comment:
Please, log in to post your performance.