Artists by letter: A B C D E F G H I J K L M N O P Q R S T U V W X Y Z 0-9

 
Venice After Dark Tab
Lalo Schifrin - Venice after dark ( movie : the venetian affair )

Tabbed by Alain.R

https://www.youtube.com/watch?v=RoIfm9Xo9V4



   Intro Bassline ( 00:00 )

G-|----------------|----------------|
D-|----------------|----------------|
A-|3-----3-3-----3-|3-----3-3---1-2-| 
E-|----------------|----------3-----|


    

    Part 2 Cimbalom ( on guitar ) ( 00:08 )   played twice

E-|----------------|6-8-8-8--------|------------11--|10-13-10--------|
B-|------------8---|---------------|----------------|---------13-----|
G-|----------------|---------------|----------------|----------------|
D-|----------------|---------------|----------------|----------------|
A-|----------------|---------------|----------------|----------------|
E-|----------------|---------------|----------------|----------------|

   
E-|------------8---|6-9-8----------|--------8---7---|----------------|
B-|----------------|------9--------|----9-----------|8---------------|
G-|----------------|---------------|----------------|----------------|
D-|----------------|---------------|----------------|----------------|
A-|----------------|---------------|----------------|----------------|
E-|----------------|---------------|----------------|----------------|

    Part 3 FLUTE ( 00:39 )
   
E-|----------------|---------------|----------------|----------------|
B-|------------3-4/|6--------------|------------4-6-|3---------------|
G-|----------------|---------------|----------------|----------------|
D-|----------------|---------------|----------------|----------------|
A-|----------------|---------------|----------------|----------------|
E-|----------------|---------------|----------------|----------------|


E-|----------------|---------------|--------------3-|----------------|
B-|------------3-4/|6--------------|------------4---|3---------------|
G-|----------------|---------------|----------------|----------------|
D-|----------------|---------------|----------------|----------------|
A-|----------------|---------------|----------------|----------------|
E-|----------------|---------------|----------------|----------------|

   Part 4 Cimbalom ( on guitar ) ( 00:54 )

E-|----------------|6-8-8-8--------|------------11--|10-13-10--------|
B-|------------8---|---------------|----------------|---------13-----|
G-|----------------|---------------|----------------|----------------|
D-|----------------|---------------|----------------|----------------|
A-|----------------|---------------|----------------|----------------|
E-|----------------|---------------|----------------|----------------|

   
E-|------------8---|6-9-8----------|--------8---7---|----------------|
B-|----------------|------9--------|----9-----------|8---------------|
G-|----------------|---------------|----------------|----------------|
D-|----------------|---------------|----------------|----------------|
A-|----------------|---------------|----------------|----------------|
E-|----------------|---------------|----------------|----------------|

   Part 5 Bandoneon ( 01:09 )

E-|----------------|---------------|----------------|----------------|
B-|------------8-9/|11-------------|------------9-11|8---------------|
G-|----------------|---------------|----------------|----------------|
D-|----------------|---------------|----------------|----------------|
A-|----------------|---------------|----------------|----------------|
E-|----------------|---------------|----------------|----------------|


E-|----------------|---------------|--------------8-|----------------|
B-|------------8-9/|11-------------|------------9---|8---------------|
G-|----------------|---------------|----------------|----------------|
D-|----------------|---------------|----------------|----------------|
A-|----------------|---------------|----------------|----------------|
E-|----------------|---------------|----------------|----------------|

   Part 6 guitar ( 01:25 )

E-|----------------|---------------|----------------|--6-------------|
B-|----------------|4-6-6-6--------|------------9---|8---8-6---------|
G-|------------5---|---------------|----------------|----------------|
D-|----------------|---------------|----------------|----------------|
A-|----------------|---------------|----------------|----------------|
E-|----------------|---------------|----------------|----------------|

   
E-|----------------|---------------|----------------|----------------|
B-|------------6---|4-7-6-2--------|----2/--6---5---|----------------|
G-|----------------|---------------|----------------|5---------------|
D-|----------------|---------------|----------------|----------------|
A-|----------------|---------------|----------------|----------------|
E-|----------------|---------------|----------------|----------------|


  Part 7 : organ solo
  
  End



 
 
Lalo Schifrin - Venice After Dark Tab :: indexed at Ultimate Guitar.
Venice After Dark tabs @ 911Tabs
People who played Lalo Schifrin - Venice After Dark Tab also played these songs by Lalo Schifrin:
Mission Impossible Theme Tab, Mission Impossible Theme, Venice After Dark

Quick tip, so you can enjoy Venice After Dark Tab even more:

After the registration (which takes just 10 seconds, remember?) you will be able to use your profile - your very own piece of YourChords.com.

Show us your talent, perform Venice After Dark Tab!

Here you can post a video or audio performance. Tell me more ...
Where can we find your performance? Tell me more ...
Your comment:
Please, log in to post your performance.