Artists by letter: A B C D E F G H I J K L M N O P Q R S T U V W X Y Z 0-9

 
Solo Voy Tab
NOTA:
/     : slide
...   : pausa o mantener apretada la cuerda
^     : lenvantar la cuerda
L     : ligar
*****************************************************************************************
Los punteos hacerlos despacio..  seguir el tiempo .. de la canción.. . muy difícil no es
,,,, la escuchas varias veces y ya esta...
******************************************************************************************

Intro:  Riff 1 + punteo

     RIFF 1         punteo
1)-----7------|----|--------------------------------7---|
2)-7/9--9---7-|----|-----9...-----7...---------7/9-9----|
3)--------8---|-x6-|-6/8------6/8------8-6...-----------|
4)------------|----|------------------------------------|
5)------------|----|------------------------------------|
6)------------|----|------------------------------------|

B                      E
Solo voy, solo hoy me siento,                      RIFF 2      RIFF 3
(Riff2)F#             E            B            1)----------|---------|
Colgando del estribo, siempre voy.              2)----------|---------|
 B                                  E   riff3   3)6/8-8-4/6-|6/8--6-6-|
Cortando calles, sin saber quien cruzará        4)----------|---------|
 F#            E            B   RIFF 1(x2)      5)----------|---------|
Y dejarme, donde quiera llegar.                 6)----------|---------|

 B                            E
Yo no saqué boletos, a este infierno
 F#            E       B
Gentes tristes veo, caminar.
 F#                   B
Mi facultad ha sido, esta calle
 F#               B    RIFF 1 (x2)
Quise ser así como soy.

    B
Y como un perro voy,
Siguiendo el sol,
                 E
Sin saber que hacer,
  B
Más pasa el tiempo,
F#       B
Más 25 soy.

Solo:

1)------------------------------|---------------------------------------|
2)------------5-----------------|----3/5------------------3/5-----------|
3)6-4...--6-7----7--6--7--6-4...|4-6-----7-6-7--4/6...-4-6----7-6-7-4...|
4)------------------------------|---------------------------------------|
5)------------------------------|---------------------------------------|
6)------------------------------|---------------------------------------|

1)----------------------------|------------------------------------------
2)----------------------------|----3/5-------------------3/5-------------
3)4-6--7-7/9...-7-6-7---6-4...|4-6-----7-6-7---6-4...-4-6----7-6---7-7-7-
4)----------------------------|------------------------------------------
5)----------------------------|------------------------------------------
6)----------------------------|------------------------------------------

1)------------------------------------------|
2)------------3/5---------------5---7---9---|
3)-7-6...-4-6-----7-6-7--4... 4/6-6/8-8/9---|
4)------------------------------------------|
5)------------------------------------------|
6)------------------------------------------|


De mí rodar, ya ni sé que se hicieron
                                            RIFF 1 (X2)
Esas cosas que pudieron ser, y que no fueron
Más gentes voy conociendo, más solo me siento
Pero siempre busco esa buena satisfacción
Un nomade soy, y un nuevo lugar buscaré
Y como dije mi camino, seguiré
Mi facultad ha sido, esta calle
Quise ser así como soy.


Y como un perro voy,
Siguiendo el sol,
Sin saber que hacer,
Más pasa el tiempo,
Más 25 soy.


Desde mí rodar, ya ni sé que se hicieron
Esas cosas que pudieron ser, y que no fueron
Más gentes voy conociendo, más quiero a mi perro
Pero siempre busco esa buena satisfacción
Un nomade soy, y un nuevo lugar buscaré
Y como dije mi camino, seguiré
Mi facultad ha sido, esta calle
Quise ser así como soy.


Y como un perro voy,                       |
Siguiendo el sol,                          |
Sin saber que hacer,                       | x2
Más pasa el tiempo,                        |
Más 25 soy.                                |

SOLO 2

1)------------------------------|---------------------------------------|
2)------------5-----------------|----3/5------------------3/5-----------|
3)6-4...--6-7----7--6--7--6-4...|4-6-----7-6-7--4/6...-4-6----7-6-7-4...|
4)------------------------------|---------------------------------------|
5)------------------------------|---------------------------------------|
6)------------------------------|---------------------------------------|

1)----------------------------|------------------------------------------
2)----------------------------|----3/5-------------------3/5-------------
3)4-6--7-7/9...-7-6-7---6-4...|4-6-----7-6-7---6-4...-4-6----7-6---7-7-7-
4)----------------------------|------------------------------------------
5)----------------------------|------------------------------------------
6)----------------------------|------------------------------------------

1)------------------------------------------|7-7-7-7-7-7-7-7-7-7--7------
2)------------3/5---------------5---7---9---|7-7-7-7-7-7-7-7-7-7-7-7-----
3)-7-6...-4-6-----7-6-7--4... 4/6-6/8-8/9---|------------------------9...
4)------------------------------------------|----------------------------
5)------------------------------------------|----------------------------
6)------------------------------------------|----------------------------

1)-----------------------------------------------|
2)-----------------------------------------------|
3)-6-4...----7-7-7--7-6...----4-6^L6-4---7-6-4...|
4)------------------------4-6--------------------|
5)-----------------------------------------------|
6)-----------------------------------------------|

******************************************************************************************
BUENO LOCO SALIO.. costo pero salio... aca esta.... podes hacerla de otra manera los 
punteos pero para mi de esta forma suena muy bien...
Cualquier duda o sugerencia hacerla a [email protected]
Aguante la 25 .... ??mas pasa el tiempo mas 25 soy??
Con el rock en las venas
 
 
La 25 - Solo Voy Tab :: indexed at Ultimate Guitar.
Solo Voy tabs @ 911Tabs

Quick tip, so you can enjoy Solo Voy Tab even more:

If you don't really know how to deal with "Absus4" chord and his equally confusing brothers, just put the mouse cursor over them and you will be shown a helpful chord diagram.

Show us your talent, perform Solo Voy Tab!

Here you can post a video or audio performance. Tell me more ...
Where can we find your performance? Tell me more ...
Your comment:
Please, log in to post your performance.