Artists by letter: A B C D E F G H I J K L M N O P Q R S T U V W X Y Z 0-9

 
Solo Voy Tab
  Intro

  Riff 1
e|-------------------|----|------------------------------------
B|------12-----------|----|---------------7-----------------12v
G|-8s13----13-----11-|-X6-|-1s13-13v--6s8-------8-9v--8s13-----
D|-------------13----|----|------------------------------------
A|-------------------|----|------------------------------------
E|-------------------|----|------------------------------------
  Riff 2         Riff 3    Riff 4             Riff 5
e|-------------|---------|------7-----------|--------|
B|-------------|---------|------------------|-----7--|
G|-6b/-6//---4-|-6ba-4-4-|-6b/----6//-6p4-4-|-6s8----|
D|-------------|---------|------------------|--------|
A|-------------|---------|------------------|--------|
E|-------------|---------|------------------|--------|
  Riff 6                Riff 7             Riff 8    Riff 9
e|--------------------|------------------|---------|-----------
B|----7----7----7-----|------------------|---------|-----------
G|-6b---6b---6b---6---|-6b/-6/-6/-6/-6//-|-1s13-13v|-6ba-p4----
D|------------------4-|------------------|---------|--------4--
A|--------------------|------------------|---------|-----------
E|--------------------|------------------|---------|-----------

B                        E
Solo voy, solo hoy me siento

F#   Riff 2     E            B
Colgando del estribo siempre voy

B                                E     Riff 3
Cortando calles sin saber quien cruzara

    F#        E            B   Riff 1
Y dejarme donde quería llegar

   B Riff 4                    E
Yo no saque boletos a este infierno

 F#  Riff 5   E          B  Riff 6
Gente triste veo al caminar

F#                  B         Riff 7
Mi facultad ha sido esta calle

F#                  B  Riff 1
Quise ser así como soy

B         Riff 4
Y como un perro voy

                        E  Riff 8
Siguiendo el sol sin saber que hacer

             B Riff 9  F#       B
Mas pasa el tiempo       más 25 soy

  Solo
e|-------------------------------------------------------------
B|-------------------------------------------------------------
G|-6-4v--6-7--7s9--7-6-7--6-4v---6-7--7s9--7-6-4--7s9--6-------
D|-------------------------------------------------------------
A|-------------------------------------------------------------
E|-------------------------------------------------------------


e|-------------------------------------------------------------
B|-------------------------------------------------------------
G|-6-7--7s9--7-6-4--7-6-4---6-7--7s9--7-6-7--6-4v---6-7--7s9---
D|-------------------------------------------------------------
A|-------------------------------------------------------------
E|-------------------------------------------------------------


e|-------------------------------------------------------------
B|-------------------------------------------------------------
G|-7-6-7--6-4v----6-7--7s9--7-6-4--7-7-7-7s6---6-7--7s9--7-6-4-
D|-------------------------------------------------------------
A|-------------------------------------------------------------
E|-------------------------------------------------------------


e|---------------------------------
B|--------------5-------7-------9--
G|-7-6-4----4s6----6s8-----8s10----
D|---------------------------------
A|---------------------------------
E|---------------------------------


      B                         E
Desde mi rodar ya ni se que se hicieron

         F#           E                  B     Riff 1
De esas cosas que pudieron ser y que no fueron

     B                                E  Riff 3
Más gente voy conociendo mas solo me siento

       F#               E             B
Pero siempre busco esa buena satisfacción

B                            E
Nomade soy nuevo lugar buscare

       F#         E         B
Y como dije mi camino seguiré


Solo

e|-------------------------------------------------------------
B|-------------------------------------------------------------
G|-6-4v--6-7--7s9--7-6-7--6-4v---6-7--7s9--7-6-4--7s9--6-------
D|-------------------------------------------------------------
A|-------------------------------------------------------------
E|-------------------------------------------------------------


e|-------------------------------------------------------------
B|-------------------------------------------------------------
G|-6-7--7s9--7-6-4--7-6-4---6-7--7s9--7-6-7--6-4v---6-7--7s9---
D|-------------------------------------------------------------
A|-------------------------------------------------------------
E|-------------------------------------------------------------


e|-------------------------------------------------------------
B|-------------------------------------------------------------
G|-7-6-7--6-4v----6-7--7s9--7-6-4--7-7-7-7s6---6-7--7s9--7-6-4-
D|-------------------------------------------------------------
A|-------------------------------------------------------------
E|-------------------------------------------------------------


e|---------------------------------
B|--------------5-------7-------9--
G|-7-6-4----4s6----6s8-----8s10----
D|---------------------------------
A|---------------------------------
E|---------------------------------


e|---------------------7---------------------------------
B|-s7-7-7-7-7-7-7-7-7-----7-7------9---------------------
G|-----------------------------8s9---9v--6s4v--4-4-4-6ba-
D|-------------------------------------------------------
A|-------------------------------------------------------
E|-------------------------------------------------------


e|----------------------------------
B|----------------------------------
G|------4-6-6ba-p4---4----6ba-4-4v--
D|--4h6------------6----------------
A|----------------------------------
E|----------------------------------

 
 
La 25 - Solo Voy Tab :: indexed at Ultimate Guitar.
Solo Voy tabs @ 911Tabs

Quick tip, so you can enjoy Solo Voy Tab even more:

If you don't really know how to deal with "Absus4" chord and his equally confusing brothers, just put the mouse cursor over them and you will be shown a helpful chord diagram.

Show us your talent, perform Solo Voy Tab!

Here you can post a video or audio performance. Tell me more ...
Where can we find your performance? Tell me more ...
Your comment:
Please, log in to post your performance.