Artists by letter: A B C D E F G H I J K L M N O P Q R S T U V W X Y Z 0-9

 
Que Tema Tab
*====================================*
* Hecha por: Tey y Kma de la Borrega *
* Mail: [email protected] *
* -- Pagina:  -- *
*====================================*

Notas:

   E5  D5  B5
e -------------
B -------------
G --9---7------
D --9---7---9--
A --7---5---9--
E ----------7--


INTRO

e -5/7 777-7---7----------
B -5/7 777-7-9-7----------
G ------------------------
D ------------------------
A ------------------------
E ------------------------ x2


e -5/7 777-7---7--77---7---7-
B -5/7 777-7-9-7--77-8-7---7-
G -----------------------9---
D ---------------------------
A ---------------------------
E ---------------------------


D5 E5
Que tema suena en la radio hoy
                          B5
no es el mismo que sonaba ayer
Se pusieron de moda
todos los superados
                            E5
que hace rato no sabian que hacer

E5
Si el otro tema sonaba mal
                   B5
y este suena mucho peor
No aspiren mas arriba
quedense con la noche
                       E5
que del resto me ocupo yo

(ajaja ajaja)

D5 E5
Que tema suena en la radio hoy
                          B5
no es el mismo que sonaba ayer
los subimos al pedo
a estos panchos paquetes
                     E5
si la gente nos pide rock

(ajaja ajaja jaja)

A5
Suban las entradas, denle mas al bombo
E5
y afinen un poquito mas
B5
Las puertas no cerraron,
hechenlos a patadas
                    E5
que pase el proximo campeon

(ajaja jaja)

A5
Mi rock no se vende, no se alquila, no se da
 E5
a esa maquina para picar
B5
Chupandole la sangre
al que viene de las calles
                      E5
el under que se cague ya

(ajaja jaja)

[SOLO]

[INTRO]

D5 E5
Que tema suena en la radio hoy
                      B5
con banderas no podes entrar
van llegando los pibes
de la mano del duende
                     E5
nadie les cortara su ritual

E5
Si el otro tema sonaba mal
                   B5
y este suena mucho peor
subanles el volumen
a esos sordos de mierda
                       E5
que del resto me ocupo yo

(ajaja ajaja jaja)

A5
Suban las entradas, denle mas al bombo
E5
y afinen un poquito mas
B5
Las puertas no cerraron,
hechenlos a patadas
                    E5
que pase el proximo campeon

(ajaja jaja)

A5
Mi rock no se vende, no se alquila, no se da
      E5
a esa maquina para picar
B5
Siempre son esos mismos
opinando giladas
                 E5
que les gusta la television

A5
Mi rock no se vende, no se alquila, no se da
      E5
a esa maquina para picar
B5
Si venis de la calle
te chupara la sangre
                      E5
el under que se cague ya

(ajaja ajaja jaja)


e -5/7 777-7---7----------
B -5/7 777-7-9-7----------
G ------------------------
D ------------------------
A ------------------------
E ------------------------ x2


e -5/7 777-7---7--77---7--
B -5/7 777-7-9-7--77-8-7--
G ------------------------
D -----------------------9
A ------------------------
E ------------------------ x2

 
 
La 25 - Que Tema Tab :: indexed at Ultimate Guitar.
Que Tema tabs @ 911Tabs

Quick tip, so you can enjoy Que Tema Tab even more:

You might want to transpose the song if it is too high or too low for you to sing. Just click the desired option while playing a song and all the chords will automatically be transponded into a new key.

Show us your talent, perform Que Tema Tab!

Here you can post a video or audio performance. Tell me more ...
Where can we find your performance? Tell me more ...
Your comment:
Please, log in to post your performance.