Artists by letter: A B C D E F G H I J K L M N O P Q R S T U V W X Y Z 0-9

 
Hasta El 66 Tab
HASTA EL 66- LA 25

  Solo
e|-----3--6-3---3--6-3---3--6-3---3------3--6-3---3--6-3---3---
B|-3h5--------5--------5--------5-3--3h5--------5--------5-----
G|-------------------------------------------------------------
D|-------------------------------------------------------------
A|-------------------------------------------------------------
E|-------------------------------------------------------------


e|-6p5p3---3-----3----3-----3----3----3----3-------------------
B|-------5-3-----3----3-----3----3----3----3-------------------
G|------------5b---5b----5b---5b---5b---5b-----5-3---3--5-3---3
D|-------------------------------------------------5--------5--
A|-------------------------------------------------------------
E|-------------------------------------------------------------


e|-------------------------------------------------------------
B|--------3----5ba-3--5ba-3-5ba-3--5ba-3--5b-3---3-------------
G|-5ba-p3-3b---------------------------------------5p3-5ba-p3--
D|------------------------------------------------------------5
A|-------------------------------------------------------------
E|-------------------------------------------------------------


e|-----------5------------------------------------------6--6---
B|-----3-5b/---5/-5//--3---------3----------------------5b-5b--
G|-3h4-------------------5--3h4----3b----5----3h4--------------
D|------------------------------------5----5------5------------
A|-------------------------------------------------------------
E|-------------------------------------------------------------


  Final
e|-6-6-6-6p3-----3--6p3----3--
B|-5-5-5-5p3--5-----5p3-5--3--
G|----------------------------
D|----------------------------
A|----------------------------
E|----------------------------
 
 
La 25 - Hasta El 66 Tab :: indexed at Ultimate Guitar.
Hasta El 66 tabs @ 911Tabs
People who played La 25 - Hasta El 66 Tab also played these songs by La 25:
Quiero 25 Tab, El Vecindario Chords, Barrio Viejo Chords, 25 Horas Chords, Cosas Viejas Chords, Vicios Y Rock And Roll Chords

Quick tip, so you can enjoy Hasta El 66 Tab even more:

YourChords.com Guitar Chords and Tabs Archive is currently indexing over 240'000 songs from 21'000+ different artists. And new chords just keep on coming in, so you will surely never run out of them.

Show us your talent, perform Hasta El 66 Tab!

Here you can post a video or audio performance. Tell me more ...
Where can we find your performance? Tell me more ...
Your comment:
Please, log in to post your performance.