Artists by letter: A B C D E F G H I J K L M N O P Q R S T U V W X Y Z 0-9

 
El Ataud Tab
   Vibrato>>>                                           ~
   Estiradas>>                                          b
   Estirar y bajar>>>                                   ba
   Slide>>>                                             s
   Sonidos armónicos>>>                                 <>
   Ligados ascendentes>                                 h
   Ligados descendentes>                                p
   Se mantieneestirada>                                 /
   Baja estirada                                        //
   Tremolo                                              *
   Toca nota siguiente con estirada mantenida           b/


INTRO

  UNA GUITARRA HACE ESTO TODO EL TIEMPO
e|--5-------5-----
B|--5-------5-----
G|----7-5h6-------
D|----------------
A|----------------
E|----------------

  OTRA HACE ESTO
e|-----|-------|-------------|------------|------------------
B|-----|-------|----5--------|----5-------|----5-8-----5-8---
G|-7b--|--7b---|-7b---7ba-7b-|-7b--7ba-7b-|-7b------7b-------
D|-----|-------|-------------|------------|------------------
A|-----|-------|-------------|------------|------------------
E|-----|-------|-------------|------------|------------------

e|-----------------------------
B|----5-8----5-8---------------
G|-7b-----7b-----7ba-5---------
D|---------------------7v------
A|-----------------------------
E|-----------------------------


SOLO

e|----------------------------------------10-9-8-7-5-----5-7---
B|-s8-8-8-8-8--s8-8-8-8--8-s8-8-8-8--10-8-10-9-8-7-5-----------
G|-s9-9-9-9-9--s9-9-9-9--9-s9-9-9-9------------------5h6-------
D|-------------------------------------------------------------
A|-------------------------------------------------------------
E|-------------------------------------------------------------

e|-7b-7ba-5---7ba-5--------------------------------------------
B|----------7---------------------------------------8----8-----
G|---------------------5-7---5-7---5-7---5-7---5-7b---7b-------
D|-------------------7-----7-----7-----7-----7-----------------
A|-------------------------------------------------------------
E|-------------------------------------------------------------

e|-------------------------------------------------------------
B|----8----8---------------------5--------s8-8-8-8-8----------
G|-7b---7b---7-5b---------5-7-7b---7b-5---s9-9-9-9-9----------
D|----------------7--5-7---------------------------------------
A|-------------------------------------------------------------
E|-------------------------------------------------------------

e|--------------------------------------8-10-8-10b-10ba-8------
B|-s8-8-8-8-8--s8-8-8-8--10-8--10--8-10------------------------
G|-s9-9-9-9-9--s9-9-9-9----------------------------------------
D|-------------------------------------------------------------
A|-------------------------------------------------------------
E|-------------------------------------------------------------

e|-------------------------------------------------------------
B|-10-8----------------------5---5----------------8----8----8--
G|------9-5b---------5-7--7b---7b--7--5---5----7b----7b---7b---
D|-----------7---5-7--------------------7----------------------
A|-------------------------------------------------------------
E|-------------------------------------------------------------

e|------------------------------------5v-----------------------
B|----8----8---------------5-7--5-5h7--------------------------
G|-7b---7b----7-5b-----5-7-------------------------------------
D|-----------------7-------------------------------------------
A|-------------------------------------------------------------
E|-------------------------------------------------------------
 
 
La 25 - El Ataud Tab :: indexed at Ultimate Guitar.
El Ataud tabs @ 911Tabs

Quick tip, so you can enjoy El Ataud Tab even more:

You might want to transpose the song if it is too high or too low for you to sing. Just click the desired option while playing a song and all the chords will automatically be transponded into a new key.

Show us your talent, perform El Ataud Tab!

Here you can post a video or audio performance. Tell me more ...
Where can we find your performance? Tell me more ...
Your comment:
Please, log in to post your performance.