Artists by letter: A B C D E F G H I J K L M N O P Q R S T U V W X Y Z 0-9

 
Tnt Tab
TNT By Kamikazee
(Tower Of Doom Version)
link: http://www.youtube.com/watch?v=UiZqWIGXNfk


Tuning: Drop D


Tower of doom intro:
(00:03)
|----------------------|
|-9-8------------------|
|-----10-9-10-9-8b-----|
|----------------------|
|----------------------|
|----------------------|


Intro:

Guitar 1
(00:11)  (00:14)
|------||----------------------------------|
|-7~---||----------------------------------|
|------||----------------------------------|4x
|------||-4-4-444-4-44444-3-33333-4-44444--|
|------||-4-4-444-4-44444-3-33333-2-22222--|
|------||-4-4-444-4-44444-3-33333----------|
|                                          |
|Guitar 2                                  |
(00:21)                                    |
|------||----------------------------------|
|------||----------------------------------|
|------||----------------------------------|2x
|------||-4-4-444-4-44444-3-33333-4-44444--|
|-//---||-4-4-444-4-44444-3-33333-2-22222--|
|-//---||-4-4-444-4-44444-3-33333----------|
(pick
 slide)


Verse:

Guitar 1
(00:29)
|------------------------------------|
|------------------------------------|
|-x-x-xxx-xxxxxxx-xxxxxxx-xxxxxxx----|
|-x-x-xxx-xxxxxxx-xxxxxxx-xxxxxxx----|
|-x-x-xxx-xxxxxxx-xxxxxxx-xxxxxxx----|
|------------------------------------|
|                                    |
Guitar 2                             |
|------------------------------------|
|------------------------------------|
|------------------------------------|
|-4-------43------34------44---------|
|-4-------43------34------24---------|
|-4-------43------34-------4---------|

Guitar 1                           
|------------------------------------|
|------------------------------------|
|-x-x-xxx-xxxxxx-xxxxxx-xxxxxx-------|3x
|-x-x-xxx-xxxxxx-xxxxxx-xxxxxx-------|
|-x-x-xxx-xxxxxx-xxxxxx-xxxxxx-------|
|------------------------------------|
|                                    |
Guitar 2                             |
|------------------------------------|
|------------------------------------|
|------------------------------------|3x
|---------43-----34-----44-----------|
|---------43-----34-----24-----------|
|---------43-----34------4-----------|
                                     

Chorus:

Guitar 1
(00:43)
|----------------------------------|
|----------------------------------|
|----------------------------------|
|-4-4-444-4-44444-3-33333-4-44444--|4x
|-4-4-444-4-44444-3-33333-2-22222--|
|-4-4-444-4-44444-3-33333----------|
|                                  |
Guitar 2                           |
|----------------------------------|
|----------------------------------|
|----------------------------------|4x
|-4-4-444-4-44444-3-33333-4-44444--|
|-4-4-444-4-44444-3-33333-2-22222--|
|-4-4-444-4-44444-3-33333----------|


Verse 2:

Guitar 1
(00:50)
|------------------------------------|
|------------------------------------|
|-x-x-xxx-xxxxxxx-xxxxxxx-xxxxxxx----|
|-x-x-xxx-xxxxxxx-xxxxxxx-xxxxxxx----|
|-x-x-xxx-xxxxxxx-xxxxxxx-xxxxxxx----|
|------------------------------------|
|                                    |
Guitar 2                             |
|------------------------------------|
|------------------------------------|
|------------------------------------|
|-4-------43------34------44---------|
|-4-------43------34------24---------|
|-4-------43------34-------4---------|

Guitar 1                           
|------------------------------------|
|------------------------------------|
|-x-x-xxx-xxxxxx-xxxxxx-xxxxxx-------|3x
|-x-x-xxx-xxxxxx-xxxxxx-xxxxxx-------|
|-x-x-xxx-xxxxxx-xxxxxx-xxxxxx-------|
|------------------------------------|
|                                    |
Guitar 2                             |
|------------------------------------|
|------------------------------------|
|------------------------------------|3x
|---------43-----34-----44-----------|
|---------43-----34-----24-----------|
|---------43-----34------4-----------|


Chorus:

Guitar 1
(01:05)
|----------------------------------|
|----------------------------------|
|----------------------------------|2x
|-4-4-444-4-44444-3-33333-4-44444--|
|-4-4-444-4-44444-3-33333-2-22222--|
|-4-4-444-4-44444-3-33333----------|

Guitar 2
|----------------------------------|
|----------------------------------|
|----------------------------------|2x
|-4-4-444-4-44444-3-33333-4-44444--|
|-4-4-444-4-44444-3-33333-2-22222--|
|-4-4-444-4-44444-3-33333----------|

Guitar 1
(10:12)
|----------------------------------|
|--------------------------10------|
|-12-10-----------12-10------------|2x
|------12-10-9-12-------12---9-12--|
|----------------------------------|
|----------------------------------|

Guitar 2
|----------------------------------|
|----------------------------------|
|----------------------------------|
|-4-4-444-4-44444-3-33333-4-44444--|2x
|-4-4-444-4-44444-3-33333-2-22222--|
|-4-4-444-4-44444-3-33333----------|


Adlib:

Guitar 1
(01:19) note: pede din wala ng mga zero "0" sa part na to,, .
|-------------------------------------------------------------------------|
|-0-13-0-12-0-10-0-12--0-10-0-9-0-7-0-9--0-7-0-6-0-4-07--0-5-0-4--0-2h4-0-|
|-------------------------------------------------------------------------|
|-------------------------------------------------------------------------|
|-------------------------------------------------------------------------|
|-------------------------------------------------------------------------|

Guitar 2
|-------------------------------------------------------------------------|
|-------------------------------------------------------------------------|
|-------------------------------------------------------------------------|
|-4-----------------------------------------------------------------------|
|-4-----------------------------------------------------------------------|
|-4-----------------------------------------------------------------------|

Guitar 1
|-------------------------------------------------------------------------|
|-0-13-0-12-0-10-0-12--0-10-0-9-0-7-0-9--0-7-0-6-0-4-07--0-5h4-0--0-2h4-0-|
|-------------------------------------------------------------------------|
|-------------------------------------------------------------------------|
|-------------------------------------------------------------------------|
|-------------------------------------------------------------------------|

Guitar 2
|-------------------------------------------------------------------------|
|-------------------------------------------------------------------------|
|-------------------------------------------------------------------------|
|-3-4---------------------------------------------------------------------|
|-3-4---------------------------------------------------------------------|
|-3-4---------------------------------------------------------------------|

Guitar 1
|-------------------------------------------------------------------------|
|-0-13-0-12-0-10-0-12--0-10-0-9-0-7-0-9--0-7-0-6-0-4-07--0-5-0-4--0-2h4-0-|
|-------------------------------------------------------------------------|
|-------------------------------------------------------------------------|
|-------------------------------------------------------------------------|
|-------------------------------------------------------------------------|

Guitar 2
|-------------------------------------------------------------------------|
|-------------------------------------------------------------------------|
|-------------------------------------------------------------------------|
|-3-4------------------3-4------------------------------------------------|
|-3-4------------------3-4------------------------------------------------|
|-3-4------------------3-4------------------------------------------------|

Guitar 1
|-2--5-0-6-0-7-0-8-0-7-0-6-0-5-
|------------------------------
|------------------------------
|------------------------------
|------------------------------

-2--5-0-6-0-7-0-8-0-7-0-6/12-0-121212-0-131313-0-14141414141414b\-|
------------------------------------------------------------------|
------------------------------------------------------------------|
------------------------------------------------------------------|
------------------------------------------------------------------|
------------------------------------------------------------------|


Guitar 2
|------------------------------
|------------------------------
|------------------------------
|-3-4--------------------------
|-3-4--------------------------
|-3-4--------------------------



------------------------------------------------------------------|
------------------------------------------------------------------|
------------------------------------------------------------------|
----------------------------3-4------3-4------3-4--4--------------|
----------------------------3-4------3-4------3-4--4--------------|
----------------------------3-4------3-4------3-4--4--------------|



Chorus:

Guitar 1
(01:05)
|-----------------------------------|
|-----------------------------------|
|-----------------------------------|
|------------------3-33333-4-44444--|
|-h2/-\------------3-33333-2-22222--|
|-h2/-\------------3-33333----------|

Guitar 2
|----------------------------------|
|----------------------------------|
|----------------------------------|
|-4-4-444-4-44444-3-33333-4-44444--|
|-4-4-444-4-44444-3-33333-2-22222--|
|-4-4-444-4-44444-3-33333----------|

Guitar 1
|----------------------------------|
|----------------------------------|
|----------------------------------|
|-4-4-444-4-44444-3-33333-4-44444--|
|-4-4-444-4-44444-3-33333-2-22222--|
|-4-4-444-4-44444-3-33333----------|

Guitar 2
|----------------------------------|
|----------------------------------|
|----------------------------------|
|-4-4-444-4-44444-3-33333-4-44444--|
|-4-4-444-4-44444-3-33333-2-22222--|
|-4-4-444-4-44444-3-33333----------|

Guitar 1
|----------------------------------|
|--------------------------10------|
|-12-10-----------12-10------------|
|------12-10-9-12-------12---9-12--|
|----------------------------------|
|----------------------------------|

Guitar 2
|----------------------------------|
|----------------------------------|
|----------------------------------|
|-4-4-444-4-44444-3-33333-4-44444--|
|-4-4-444-4-44444-3-33333-2-22222--|
|-4-4-444-4-44444-3-33333----------|


Guitar 1
|----------------------------------|
|--------------------------10------|
|-12-10-----------12-10------------|
|------12-10-9-12-------12---9-12\-|
|----------------------------------|
|----------------------------------|

Guitar 2
|----------------------------------|
|----------------------------------|
|----------------------------------|
|-4-4-444-4-44444-3-33333-4-44444--|
|-4-4-444-4-44444-3-33333-2-22222--|
|-4-4-444-4-44444-3-33333----------|

-end-

Pasensya na kung masyado mahaba ;)


x dead note
/ slide up
\ slide down
b bend


 
 
Kamikazee - Tnt Tab :: indexed at Ultimate Guitar.
Tnt tabs @ 911Tabs

About the artist behind Tnt Tab:

Kamikazee is a rock band from the Philippines composed of Jay Contreras (Lead Vocalist), Jomal Linao (Guitars/Back-up Vocals), Led Zeppelin Tuyay (Guitars), Jason "Puto" Astete (Bass Guitar) and Allan "Bords" Burdeos (drums).

Indexed at Wikipedia.

Show us your talent, perform Tnt Tab!

Here you can post a video or audio performance. Tell me more ...
Where can we find your performance? Tell me more ...
Your comment:
Please, log in to post your performance.