Artists by letter: A B C D E F G H I J K L M N O P Q R S T U V W X Y Z 0-9

 
Martyr Nyebera Tab
-----------------------------------------------------------------------------
                             MARTYR NYEBERA - Kamikazee
-----------------------------------------------------------------------------
Tabbed by: Monstoy Guitar

Check out the video tutorial of this song on my YouTube Channel!
YOUTUBE: https://www.youtube.com/channel/UC8UpBLYq8T0mkscMhkMyuAg

Tuning: Standard

INTRO:

Guitar 1
e|--------------------------------------------------------------------| 2x
B|--------------------------------------------------------------------|
G|-------------------7-6-----------6/7-7-7-6/7-7-7-6/7-7-7--9-9-9-----|
D|-----------------------x-x-x-x--------------------------------------|
A|---7---2--x-x-x-x--5-4-x-x-x-x---4/5-5-5"4/5-5-5"4/5-5-5--7-7-7-0---|
E|---5---0--x-x-x-x-----------------------------------------------0---|

e|--------------------------------------------------------------------| 2x
B|--------------------------------------------------------------------|
G|--------------------------------------------------------------------|
D|-------------------------------7-7--7-7-7-0--9-9--9-9-9-0-----------|
A|---7-7--7-7-7-7--7-7--7-7-7-0--5-5--5-5-5-0--7-7--7-7-7-0-----------|
E|---5-5--5-5-5-5--5-5--5-5-5-0---------------------------------------|

e|--------------------------------------------------------------------|
B|--------------------------------------------------------------------|
G|--------------------------------------------------------------------|
D|--------------------------------------------------------------------|
A|--------------------------------------------------------------------|
E|--------------------------------------------------------------------|

Guitar 2
e|--------------------------------------------------------------------|
B|--------------------------------------------------------------------|
G|-------------------7-6----------------------------------------------|
D|-----------------------x-x-x-x---6/7-7-7-6/7-7-7-6/7-7-7--9-9-9-----|
A|---7---2--x-x-x-x--5-4-x-x-x-x---4/5-5-5"4/5-5-5"4/5-5-5--7-7-7-0---|
E|---5---0--x-x-x-x-----------------------------------------------0---|

e|--------------------------------------------------------------------|
B|--------------------------------------------------------------------|
G|---6---7/9-7-6------------------------------------------------------|
D|-----7---------7----------------------------------------------------|
A|--------------------------------------------------------------------|
E|--------------------------------------------------------------------|

e|--------------------------------------------------------------------|
B|--------------------------------------------------------------------|
G|---7/9-7-6h7-6h7----------------------------------------------------|
D|-----------------7-9-9/11-9-7-9-------------------------------------|
A|--------------------------------------------------------------------|
E|--------------------------------------------------------------------|

e|--------------------------------------------------------------------|
B|--------------------------------------------------------------------|
G|---6---7/9-7-6------------------------------------------------------|
D|-----7---------7----------------------------------------------------|
A|--------------------------------------------------------------------|
E|--------------------------------------------------------------------|

e|--------------------------------------------------------------------|
B|--------------------------------------------------------------------|
G|---7/9-7-6h7-6h7----------------------------------------------------|
D|-----------------7-9-9/11-9-7-9-7-----------------------------------|
A|--------------------------------------------------------------------|
E|--------------------------------------------------------------------|

VERSE 1:
e|--------------------------------------------------------------------|
B|--------------------------------------------------------------------|
G|--------------------------------------------------------------------|
D|--------------------------------------------------------------------|
A|---7--7-7-7-7-7-7-7-7-7-7-7-7-7-7-0---------------------------------|
E|---5--5-5-5-5-5-5-5-5-5-5-5-5-5-5-0---------------------------------|

e|--------------------------------------------------------------------|
B|--------------------------------------------------------------------|
G|--------------------------------------------------------------------|
D|---7--7-7-7-7-7-7---9--9-9-9-9-9-0----------------------------------|
A|---5--5-5-5-5-5-5---7--7-7-7-7-7-0----------------------------------|
E|--------------------------------------------------------------------|

e|--------------------------------------------------------------------|
B|--------------------------------------------------------------------|
G|--------------------------------------------------------------------|
D|--------------------------------------------------------------------|
A|---7--7-7-7-7-7-7-7-7-7-7-7-7-7-7-0---------------------------------|
E|---5--5-5-5-5-5-5-5-5-5-5-5-5-5-5-0---------------------------------|

e|--------------------------------------------------------------------|
B|--------------------------------------------------------------------|
G|--------------------------------------------------------------------|
D|---7--7-7-7-7-7-7---9--9-9-9-9--------------------------------------|
A|---5--5-5-5-5-5-5---7--7-7-7-7--------------------------------------|
E|--------------------------------------------------------------------|

e|--------------------------------------------------------------------| 2x
B|--------------------------------------------------------------------|
G|--------------------------------------------------------------------|
D|-------------------------------7-7--7-7-7-0--9-9--9-9-9-0-----------|
A|---7-7--7-7-7-7--7-7--7-7-7-0--5-5--5-5-5-0--7-7--7-7-7-0-----------|
E|---5-5--5-5-5-5--5-5--5-5-5-0---------------------------------------|

e|--------------------------------------------------------------------|
B|--------------------------------------------------------------------|
G|--------------------------------------------------------------------|
D|---------------------------------7----------------------------------|
A|---4-4-4--4-4-4---2-2-2--2-2-2---5----------------------------------|
E|---2-2-2--2-2-2---0-0-0--0-0-0--------------------------------------|

CHORUS:
e|--------------------------------------------------------------------|
B|--------------------------------------------------------------------|
G|--------------------------------------------------------------------|
D|---------------9-9-9--9-9-0--6-6-6--6-6-0--7-7-7--7-7-0-------------|
A|---7-7--7-7-0--7-7-7--7-7-0--4-4-4--4-4-0--5-5-5--5-5-0-------------|
E|---5-5--5-5-0-------------------------------------------------------|

e|--------------------------------------------------------------------|
B|--------------------------------------------------------------------|
G|-----------------------------------------------7\6-7\6-7\6----------|
D|-----------------9-9-9--9-9-0--6-6-6--6-6-6-0-----------------------|
A|---7-7-7--7-7-0--7-7-7--7-7-0--4-4-4--4-4-6-0--5\4-5\4-5\4-x-x------|
E|---5-5-5--5-5-0--------------------------------------------x-x------|

INTRO:
e|--------------------------------------------------------------------| 2x
B|--------------------------------------------------------------------|
G|---------------------------------6/7-7-7-6/7-7-7-6/7-7-7--9-9-9-----|
D|-------------------7-6-x-x-x-x--------------------------------------|
A|---7---2--x-x-x-x--5-4-x-x-x-x---4/5-5-5"4/5-5-5"4/5-5-5--7-7-7-0---|
E|---5---0--x-x-x-x-----------------------------------------------0---|

VERSE 2:
Guitar 2
e|--------------------------------------------------------------------|
B|--------------------------------------------------------------------|
G|-------9---7---6h7p6------9---7---6h7p6-----------------------------|
D|---7-7---7---7--------7-7---7---7-----------------------------------|
A|--------------------------------------------------------------------|
E|--------------------------------------------------------------------|

e|--------------------------------------------------------------------|
B|--------------------------10-9-10-----------------------------------|
G|-------9---7---9---9/11-9-------------------------------------------|
D|---7-7---7---7---7--------------------------------------------------|
A|--------------------------------------------------------------------|
E|--------------------------------------------------------------------|

e|--------------------------------------------------------------------|
B|--------------------------------------------------------------------|
G|-------9---7---6h7p6------9---7---6h7p6-----------------------------|
D|---7-7---7---7--------7-7---7---7-----------------------------------|
A|--------------------------------------------------------------------|
E|--------------------------------------------------------------------|

e|--------------------------------------------------------------------|
B|--------------------------------------------------------------------|
G|-------9---7---9---9-9-x-9-x-9-x-0----------------------------------|
D|---7-7---7---7---7-9-9-x-9-x-9-x-0----------------------------------|
A|--------------------------------------------------------------------|
E|--------------------------------------------------------------------|

e|--------------------------------------------------------------------| 2x
B|--------------------------------------------------------------------|
G|---14----13----11----9----------------------------------------------|
D|--------------------------------------------------------------------|
A|---12----11----9-----7----------------------------------------------|
E|--------------------------------------------------------------------|

e|--------------------------------------------------------------------|
B|--------------------------------------------------------------------|
G|--------------------------------------------------------------------|
D|---------------7----------------------------------------------------|
A|---4-----2-----5----------------------------------------------------|
E|---2-----0----------------------------------------------------------|

CHORUS:
e|--------------------------------------------------------------------|
B|--------------------------------------------------------------------|
G|--------------------------------------------------------------------|
D|---------------9-9-9--9-9-0--6-6-6--6-6-0--7-7-7--7-7-0-------------|
A|---7-7--7-7-0--7-7-7--7-7-0--4-4-4--4-4-0--5-5-5--5-5-0-------------|
E|---5-5--5-5-0-------------------------------------------------------|

e|--------------------------------------------------------------------|
B|--------------------------------------------------------------------|
G|-----------------------------------------------7\6-7\6-7\6----------|
D|-----------------9-9-9--9-9-0--6-6-6--6-6-6-0-----------------------|
A|---7-7-7--7-7-0--7-7-7--7-7-0--4-4-4--4-4-6-0--5\4-5\4-5\4-0-7------|
E|---5-5-5--5-5-0--------------------------------------------0-5------|


GUITAR SOLO:
Guitar 2
e|--------------------------------------------------------------------|
B|---10-10-10-10-9-9-9-9----------------------------------------------|
G|-----------------------9-9-9-9--------------------------------------|
D|--------------------------------------------------------------------|
A|--------------------------------------------------------------------|
E|--------------------------------------------------------------------|

e|--------------------------------------------------------------------|
B|---10-10-9-9-----10-10-9-9-----10-10-9-9----------------------------|
G|-------------9-9-----------9-9-----------9-9-9-9--------------------|
D|--------------------------------------------------------------------|
A|--------------------------------------------------------------------|
E|--------------------------------------------------------------------|

e|--------------------------------------------------------------------|
B|---10-10-10-10-9-9-9-9----------------------------------------------|
G|-----------------------9-9-9-9--------------------------------------|
D|--------------------------------------------------------------------|
A|--------------------------------------------------------------------|
E|--------------------------------------------------------------------|

e|--------------------------------------------------------------------|
B|---10-10-9-9-----10-10-9-9-------9-x-9-x-9-x-9----------------------|
G|-------------9-9-----------9-9-9-9-x-9-x-9-x-9----------------------|
D|--------------------------------------------------------------------|
A|--------------------------------------------------------------------|
E|--------------------------------------------------------------------|

Album version
e|--------------------------------------------------------------------| 4x
B|---10-10-10-12-12-12-10-10-10-12-12-12-10-10-12-12------------------|
G|---9--9--9--9--9--9--9--9--9--9--9--9--9--9--9--9-------------------|
D|--------------------------------------------------------------------|
A|--------------------------------------------------------------------|
E|--------------------------------------------------------------------|

e|--------------------------------------------------------------------|
B|---9h10-10-10-10-10-10-10-9-9-9-10-10-10-10-10/14-14-14-14----------|
G|--------------------------------------------------------------------|
D|--------------------------------------------------------------------|
A|--------------------------------------------------------------------|
E|--------------------------------------------------------------------|

e|--------------------------------------------------------------------|
B|---12-12-12-12-10-10-10-10-9-9-9-9-9-9h10-10-10-9-9-10-10-----------|
G|--------------------------------------------------------------------|
D|--------------------------------------------------------------------|
A|--------------------------------------------------------------------|
E|--------------------------------------------------------------------|

e|--------------------------------------------------------------------|
B|---12-12-12-10-10-10-9-9-10-9-10------------------------------------|
G|-------------------------9----9-------------------------------------|
D|--------------------------------------------------------------------|
A|--------------------------------------------------------------------|
E|--------------------------------------------------------------------|


Tower Sessions Version
e|--------------------------------------------------------------------|
B|---10-10-10-12-12-12-10-10-10-9-9-9-10-10-12-12-10-10-10------------|
G|---9--9--9--9--9--9--9--9--9--9-9-9-9--9--9--9--9--9"9--------------|
D|--------------------------------------------------------------------|
A|--------------------------------------------------------------------|
E|--------------------------------------------------------------------|

e|--------------------------------------------------------------------|
B|---9-9-9-10-10-10-12-12-12-10-10-9-9-10-10-10-----------------------|
G|---9-9-9-9--9--9--9--9--9--9--9--9-9-9--9--9------------------------|
D|--------------------------------------------------------------------|
A|--------------------------------------------------------------------|
E|--------------------------------------------------------------------|

e|--------------------------------------------------------------------|
B|---9-9-9-10-10-10-12-12-12-10-10-9-9-10-10-10-----------------------|
G|---9-9-9-9--9--9--9--9--9--9--9--9-9-9--9--9------------------------|
D|--------------------------------------------------------------------|
A|--------------------------------------------------------------------|
E|--------------------------------------------------------------------|
e|--------------------------------------------------------------------|
B|---9-9-9-10-10-10-10-10-10-10-10-10-10-10-10------------------------|
G|---9-9-9-9--9--9--9--9--9--9--9--9--9--9--9-------------------------|
D|--------------------------------------------------------------------|
A|--------------------------------------------------------------------|
E|--------------------------------------------------------------------|

e|--------------------------------------------------------------------|
B|---9h10-10-10-10-10-10-10-9-9-9-10-10-10-10-10/14-14-14-14----------|
G|--------------------------------------------------------------------|
D|--------------------------------------------------------------------|
A|--------------------------------------------------------------------|
E|--------------------------------------------------------------------|

e|--------------------------------------------------------------------|
B|---12-12-12-12-10-10-10-10-9-9-9-9-9-9h10-10-10-9-9-10-10-----------|
G|--------------------------------------------------------------------|
D|--------------------------------------------------------------------|
A|--------------------------------------------------------------------|
E|--------------------------------------------------------------------|

e|--------------------------------------------------------------------|
B|---12-12-12-10-10-10-9-9-10-9-10------------------------------------|
G|-------------------------9----9-------------------------------------|
D|--------------------------------------------------------------------|
A|--------------------------------------------------------------------|
E|--------------------------------------------------------------------|


Guitar 1
e|--------------------------------------------------------------------|
B|--------------------------------------------------------------------|
G|--------------------------------------------------------------------|
D|---7-7-7-7-6-6-6-6---------7-7-6-6-----7-7-6-6-----7-7-6-6----------|
A|-------------------7-7-7-7---------7-7---------7-7---------7-7-7-7--|
E|--------------------------------------------------------------------|

e|--------------------------------------------------------------------|
B|--------------------------------------------------------------------|
G|--------------------------------------------------------------------|
D|---7-7-7-7-6-6-6-6---------7-7-6-6-----7-7-6-6-------9-x-9-x-9-x-9--|
A|-------------------7-7-7-7---------7-7---------7-7-7-7-x-7-x-7-x-7--|
E|--------------------------------------------------------------------|

e|--------------------------------------------------------------------| 2x
B|--------------------------------------------------------------------|
G|--------------------------------------------------------------------|
D|---7-7-7-7-9-9-9-9-11-11-11-11-14-14-14-14--------------------------|
A|--------------------------------------------------------------------|
E|--------------------------------------------------------------------|

e|--------------------------------------------------------------------|
B|--------------------------------------------------------------------|
G|--------------------------------------------------------------------|
D|---7-7-7-7-6-6-6-6---------7-7-6-6-----7-7-6-6-----7-7-6-6----------|
A|-------------------7-7-7-7---------7-7---------7-7---------7-7-7-7--|
E|--------------------------------------------------------------------|

e|--------------------------------------------------------------------|
B|--------------------------------------------------------------------|
G|--------------------------------------------------------------------|
D|---------------7----------------------------------------------------|
A|---4-----2-----5----------------------------------------------------|
E|---2-----0----------------------------------------------------------|

e|-------------------(0)----------------------------------------------|
B|-------------------(0)----------------------------------------------|
G|-------------------(2)----------------------------------------------|
D|---------------7-6--2-----------------------------------------------|
A|---4-----2-----5-4--0-----------------------------------------------|
E|---2-----0----------------------------------------------------------|

BRIDGE:

Guitar 2
e|--------------------------------------------------------------------|
B|---5----------------------------------------------------------------|
G|-----7---6-7-7/9-7-6-7-7/9------------------------------------------|
D|--------------------------------------------------------------------|
A|--------------------------------------------------------------------|
E|--------------------------------------------------------------------|

e|--------------------------------------------------------------------|
B|---10-9-10-10/12-10-9---10-9-10-10/12-10-9---10-9-10-10/12-10-9-5---|
G|--------------------------------------------------------------------|
D|--------------------------------------------------------------------|
A|--------------------------------------------------------------------|
E|--------------------------------------------------------------------|

e|---0----------------------------------------------------------------|
B|---0-----10---10---10---10---10---10---10---10----------------------|
G|---0--------9----9----9----9----9----9----9----9--------------------|
D|--------------------------------------------------------------------|
A|--------------------------------------------------------------------|
E|--------------------------------------------------------------------|

e|--------------------------------------------------------------------|
B|-----9---9---9---9---9---9---9---9----------------------------------|
G|-------9---9---9---9---9---9---9---9--------------------------------|
D|--------------------------------------------------------------------|
A|--------------------------------------------------------------------|
E|--------------------------------------------------------------------|

e|--------------------------------------------------------------------|
B|-----10---10---10---10---12---12---12---12--------------------------|
G|--------9----9----9----9----9----9----9----9------------------------|
D|--------------------------------------------------------------------|
A|--------------------------------------------------------------------|
E|--------------------------------------------------------------------|

e|--------------------------------------------------------------------|
B|-----10---10---10---10---10---10---10---10--------------------------|
G|--------9----9----9----9----9----9----9----9------------------------|
D|--------------------------------------------------------------------|
A|--------------------------------------------------------------------|
E|--------------------------------------------------------------------|

e|--------------------------------------------------------------------| 3X
B|---10-10-10-9-9-9-10-10-10-12-12-12-10-10-9-9-----------------------|
G|---9--9--9--9-9-9-9--9"-9--9--9--9--9--9--9-9-----------------------|
D|--------------------------------------------------------------------|
A|--------------------------------------------------------------------|
E|--------------------------------------------------------------------|

e|--------------------------------------------------------------------|
B|---10-10-10-10-10-10-10-10-10-10-10-10-10-10-10-10------------------|
G|---9--9--9--9--9--9--9--9--9--9--9--9--9--9--9--9-------------------|
D|--------------------------------------------------------------------|
A|--------------------------------------------------------------------|
E|--------------------------------------------------------------------|

e|--------------------------------------------------------------------|
B|--------------------------------------------------------------------|
G|--------------------------------------------------------------------|
D|---6-6-6-4-4-4---------------------------------------------9-9-9----|
A|---4-4-4-2-2-2-6-6-6-7-7-7-6-6-7-7-6-6-6-7-7-7-9-9-9-2-2-2-7-7-7----|
E|---------------4-4-4-5-5-5-4-4-5-5-4-4-4-5-5-5-7-7-7-0-0-0----------|

e|--------------------------------------------------------------------|
B|--------------------------------------------------------------------|
G|--------------------------------------------------------------------|
D|---6-6-6-4-4-4------------------------------------------------------|
A|---4-4-4-2-2-2-6-6-6-7-7-7-6-6-7-7-6-6-6-7-7-7-9-9------------------|
E|---------------4-4-4-5-5-5-4-4-5-5-4-4-4-5-5-5-7-7------------------|

 
 
Kamikazee - Martyr Nyebera Tab :: indexed at Ultimate Guitar.
Martyr Nyebera tabs @ 911Tabs

About the artist behind Martyr Nyebera Tab:

Kamikazee is a rock band from the Philippines composed of Jay Contreras (Lead Vocalist), Jomal Linao (Guitars/Back-up Vocals), Led Zeppelin Tuyay (Guitars), Jason "Puto" Astete (Bass Guitar) and Allan "Bords" Burdeos (drums).

Indexed at Wikipedia.

Show us your talent, perform Martyr Nyebera Tab!

Here you can post a video or audio performance. Tell me more ...
Where can we find your performance? Tell me more ...
Your comment:
Please, log in to post your performance.