Artists by letter: A B C D E F G H I J K L M N O P Q R S T U V W X Y Z 0-9

 
Huling Sayaw Tab
Kamikazee ft. Kyla - Huling Sayaw

Tabbed by: Joey Lingon

Intro:
E-------------------------------------------------------------------:
B-------------------------------------------------------------------:
G-------------------------------------------------------------------:
D-------------------------------------------------------------------:
A--2-2-2-2-2-2-2-2-4-4-4-4-4-4-4-4-7-7-7-7-7-7-7-7-7-7-7-7-7-7-7-7--:
E--0-0-0-0-0-0-0-0-2-2-2-2-2-2-2-2-5-5-5-5-5-5-5-5-5-5-5-5-5-5-5-5--:


E-------------------------------------------------------------------:
B------------------------------------------------4------------------:
G-------------------------------------------------------------------:
D--6-6-6-6-6-6-6-6-9-9-9-9-9-9-9-9-2-2-2-2-2-2-2-2------------------:
A--4-4-4-4-4-4-4-4-7-7-7-7-7-7-7-7-0-0-0-0-0-0-0-0-(--pickscrape--)-:
E--------------------------------------------------(--pickscrape--)-:
                                                   

E------------------------------------------9----------9----------9----------9-----------:               
B--9-9-9-9-9-9-9-9-10-10-10-10-10-10-10-10---10-10-10---10-10-10---10-10-10---10-10-10--:               
G--9-9-9-9-9-9-9-9-9--9--9--9--9--9--9--9-----------------------------------------------:
D---------------------------------------------------------------------------------------:
A---------------------------------------------------------------------------------------:
E---------------------------------------------------------------------------------------:
        OR
           E------------------------------------------------------------------------------------:
           B--9-9-9-9-9-9-9-9-10-10-10-10-10-10-10-10-14--------14--------14--------14----------:
           G--9-9-9-9-9-9-9-9-9--9--9--9--9--9--9--9----14-14-14--14-14-14--14-14-14--14-14-14--:
           D------------------------------------------------------------------------------------:
           A------------------------------------------------------------------------------------:
           E------------------------------------------------------------------------------------:



E---------------------------------------------------------12-------------------12-------:
B--9-9-9-9-9-9-9-9-10-10-10-10-10-10-10-10-12-12-12-12-12----12-12-12-12-12-12----12----:
G--9-9-9-9-9-9-9-9-9--9--9--9--9--9--9--9--9--9--9--9--9--------9--9--9--9--9-----------:
D---------------------------------------------------------------------------------------:
A---------------------------------------------------------------------------------------:
E---------------------------------------------------------------------------------------:


verse:
E--0-0-0-0-0-0-0-----0------0----:
B--0-0-0-0-0-0-0--0---0--0---0---:
G--9-9-9-8-8-8-8---2---2--2------:
D--9-9-9-9-9-9-9----2------2-----:
A--x-x-7-9-9-9-9-0------0--------:
E--9-9-X-7-7-7-7-----------------: (repeat 4x) same as 2nd verse except for breaks.

refrain:
E---------------------------------------------------------------------------:
B---------------------------------------------------------------------------:
G--9-6-6-6-6-8-8-9-9-9-9-9-9-9-9-9-9-9-9-9-9-9-6-6-6-6-8-8-9-9-9-9-9-9-9-9--:
D---7-7-7-7-9-9-9-9-9-9-9-9-9-9-9-9-9-9-9-9-9-7-7-7-7-9-9-9-9-9-9-9-9-9-9---:
A---------------------------------------------------------------------------:
E---------------------------------------------------------------------------:
(repeat 2x)then add harmonics(12th fret) at the 1st refrain and pickscrape on the second, got it?

1st chorus:
E-------------------------------------------------------------------:
B-------------------------------------------------------------------:
G-------------------------------------------------------------------:
D-------------------------------------------------------------------:
A--2-2-2-2-2-2-2-2-4-4-4-4-4-4-4-4-7-7-7-7-7-7-7-7-7-7-7-7-7-7-7-7--:
E--0-0-0-0-0-0-0-0-2-2-2-2-2-2-2-2-5-5-5-5-5-5-5-5-5-5-5-5-5-5-5-5--:


E-------------------------------------------------------------------:
B-------------------------------------------------------------------:
G-------------------------------------------------------------------:
D--6-6-6-6-6-6-6-6-9-9-9-9-9-9-9-9-2-2-2-2-2-2-2-2-2-2-2-2-2-2-2-2--:
A--4-4-4-4-4-4-4-4-7-7-7-7-7-7-7-7-0-0-0-0-0-0-0-0-0-0-0-0-0-0-0-0--:
E-------------------------------------------------------------------:


E------------------------------------------9----------9----------9----------9-----------:
B--9-9-9-9-9-9-9-9-10-10-10-10-10-10-10-10---10-10-10---10-10-10---10-10-10---10-10-10--:
G--9-9-9-9-9-9-9-9-9--9--9--9--9--9--9--9-----------------------------------------------:
D---------------------------------------------------------------------------------------:
A---------------------------------------------------------------------------------------:
E---------------------------------------------------------------------------------------:


E---------------------------------------------------------12-------------------12-------:
B--9-9-9-9-9-9-9-9-10-10-10-10-10-10-10-10-12-12-12-12-12----12-12-12-12-12-12----12----:
G--9-9-9-9-9-9-9-9-9--9--9--9--9--9--9--9--9--9--9--9--9--------9--9--9--9--9-----------:
D---------------------------------------------------------------------------------------:
A---------------------------------------------------------------------------------------:
E---------------------------------------------------------------------------------------:


2nd chorus:
E------------------------------------------9----------9----------9----------9-----------:
B--9-9-9-9-9-9-9-9-10-10-10-10-10-10-10-10---10-10-10---10-10-10---10-10-10---10-10-10--:
G--9-9-9-9-9-9-9-9-9--9--9--9--9--9--9--9-----------------------------------------------:
D---------------------------------------------------------------------------------------:
A---------------------------------------------------------------------------------------:
E---------------------------------------------------------------------------------------:


E---------------------------------------------------------12-------------------12-------:
B--9-9-9-9-9-9-9-9-10-10-10-10-10-10-10-10-12-12-12-12-12----12-12-12-12-12-12----12----:
G--9-9-9-9-9-9-9-9-9--9--9--9--9--9--9--9--9--9--9--9--9--------9--9--9--9--9-----------:
D---------------------------------------------------------------------------------------:
A---------------------------------------------------------------------------------------:
E---------------------------------------------------------------------------------------:


E--16--16--16--16--12--12--12--12--11--11--11--11--12--12--12--12--:
B----12--12--12--12--12--12--12--12--12--12--12--12--12--12--12----:
G------------------------------------------------------------------:
D------------------------------------------------------------------:
A------------------------------------------------------------------:
E------------------------------------------------------------------:


E--16-16-16-16-16-16-16-16-12-12-12-12-12-12-12-12-0-0-0-0-0-0-0-0------------------:
B--12-12-12-12-12-12-12-12-12-12-12-12-12-12-12-12-0-0-0-0-0-0-0-0------------------:
G--------------------------------------------------9-9-9-9-9-9-9-9------------------:
D--------------------------------------------------9-9-9-9-9-9-9-9-7-7-7-7-7-7-7-7--:
A-----------------------------------------------------------------------------------:
E-----------------------------------------------------------------------------------:


(adlib)
E-----------------------------------:
B-----------------------------------:
G-----------------------------------:
D-----------------------------------:
A-----------------------------------:
E--9-9-9-9-9-9-9-9-9-9-9-9-9-0-0-0--:


E----------------------------------------------------------------:
B----------------------------------------------------------------:
G-6-8-9-9-9-8-6-6-8-9-9-9-8--------------------------------------:
D--------------------------6-6-6-6-6s9-6s9-6s9-6s9-9s11-11-11-11-:
A----------------------------------------------------------------:
E----------------------------------------------------------------:

E-------------------12--12--12---------:
B--------------12-12--12--12--14-14-14-:
G---11--11--11-------------------------:
D-11--11--11---------------------------:
A--------------------------------------:
E--------------------------------------:


Part ni Jomal(with wah)
   16picks      16picks     16picks     16picks
E-----------------------------------------------:
B--14-----------16----------14----------14------:
G--16b18--------18b20-------16b18-------16b18---:
D-----------------------------------------------:
A-----------------------------------------------:
E-----------------------------------------------:

outro:
E-------------------------------------------------------------------:
B-------------------------------------------------------------------:
G-------------------------------------------------------------------:
D-------------------------------------------------------------------:
A--2-2-2-2-2-2-2-2-4-4-4-4-4-4-4-4-7-7-7-7-7-7-7-7-7-7-7-7-7-7-7-7--:
E--0-0-0-0-0-0-0-0-2-2-2-2-2-2-2-2-5-5-5-5-5-5-5-5-5-5-5-5-5-5-5-5--:


E-------------------------------------------------------------------:
B-------------------------------------------------------------------:
G--------------------------------------------------2-2-2-2-2-2-2-2--:
D--6-6-6-6-6-6-6-6-9-9-9-9-9-9-9-9-2-2-2-2-2-2-2-2-2-2-2-2-2-2-2-2--:
A--4-4-4-4-4-4-4-4-7-7-7-7-7-7-7-7-0-0-0-0-0-0-0-0-0-0-0-0-0-0-0-0--:
E-------------------------------------------------------------------:


E------0-------0-------0-------0----0---0-------0-------------------------:
B---0---0---0---0---0---0---0---0----0---0---0---0------------------------:
G----1---1---2---2---2---2---6---6----6---6---1---1-----------------------:
D-----2---2---4---4---2---2---6---6----6---6---2---2----------------------:
A------------------0-------4-------6----------------2---(--pickscrape--)--:
E--0-------2--------------------------------0--------0--(--pickscrape--)--:
                                                        

The next lines are already tabbed above. \m/

Tabbed by: Joey Lingon
Please rate and comment
Good luck. Rock on!
 
 
Kamikazee - Huling Sayaw Tab :: indexed at Ultimate Guitar.
Huling Sayaw tabs @ 911Tabs

About the artist behind Huling Sayaw Tab:

Kamikazee is a rock band from the Philippines composed of Jay Contreras (Lead Vocalist), Jomal Linao (Guitars/Back-up Vocals), Led Zeppelin Tuyay (Guitars), Jason "Puto" Astete (Bass Guitar) and Allan "Bords" Burdeos (drums).

Indexed at Wikipedia.

Show us your talent, perform Huling Sayaw Tab!

Here you can post a video or audio performance. Tell me more ...
Where can we find your performance? Tell me more ...
Your comment:
Please, log in to post your performance.