Artists by letter: A B C D E F G H I J K L M N O P Q R S T U V W X Y Z 0-9

 
Huling Sayaw Tab
-------------------------------------------------------------------------------
                             Huling Sayaw - Kamikazee
-------------------------------------------------------------------------------
Tabbed by:ryrioskeshinn
E-mail:[email protected]

Tuning:Standard


************************************

| /   slide up
| ~   let it ring
| +   harmonic
| x   dead/mute string
| v   vibrato
| .   palm mute

************************************

INTRO

Guitar 1
e|---------------------------------------------------------------------|
B|---------------------------------------------------------------------|
G|-----------------------------------66666666-9999999-2222222222222222-|
D|-22222222-4444444-7777777777777777-66666666-9999999-2222222222222222-|
A|-22222222-4444444-7777777777777777-44444444-7777777-0000000000000000-|
E|-00000000-2222222-5555555555555555-----------------------------------|

e|---------------------------------------------------------------------|
B|---------------------------------------------------------------------|
G|-----------------------------------66666666-9999999-2222222222222222-|
D|-22222222-4444444-7777777777777777-66666666-9999999-2222222222222222-|
A|-22222222-4444444-7777777777777777-44444444-7777777-0000000000000000-|
E|-00000000-2222222-5555555555555555-----------------------------------|

Guitar 2 
e|--------------------------------------------------------------------------|
B|--------------------------------------------------------------------------|
G|-----------------------------------66666666-9999999-22222222~-------------|
D|-22222222-4444444-7777777777777777-66666666-9999999-22222222~-------------|
A|-22222222-4444444-7777777777777777-44444444-7777777-00000000~-------------|
E|-00000000-2222222-5555555555555555-----------------------------*pickslide-|

e|--------------------------------------------------------------------------------------|
B|-9-9-9-9-9-9-9-9-10-10-10-10-10-10-10-14-14-14-14-14-14-14-14-14-14-14-14-14-14-14-14-|
G|-9-9-9-9-9-9-9-9-9--9--9--9--9--9--9--14-14-14-14-14-14-14-14-14-14-14-14-14-14-14-14-|
D|--------------------------------------------------------------------------------------|
A|--------------------------------------------------------------------------------------|
E|--------------------------------------------------------------------------------------|

e|--------------------------------------------------------------------------------------|
B|-9-9-9-9-9-9-9-9-10-10-10-10-10-10-10-12-12-12-12-12-12-12-12-12-12-12-12-12-12-12-12-|
G|-9-9-9-9-9-9-9-9-9--9--9--9--9--9--9--9--9--9--9--9--9--9--9--9--9--9--9--9--9--9--9--|
D|--------------------------------------------------------------------------------------|
A|--------------------------------------------------------------------------------------|
E|--------------------------------------------------------------------------------------|


VERSE 1- 

(ito na ang ating huling sandali)

Guitar 1
e|--------------------------------|
B|--------------------------------|
G|-6x6~---6-4x444444-222222222222-|
D|-6x6~---6-4x444444-222222222222-|
A|-4x4~---4-2x222222-000000000000-|
E|--------------------------------|

e|--------------------------------|
B|--------------------------------|
G|-6x6~---6-4x444444-222222222222-|
D|-6x6~---6-4x444444-222222222222-|
A|-4x4~---4-2x222222-000000000000-|
E|--------------------------------|

e|--------------------------------|
B|--------------------------------|
G|-6x6~---6-4x444444-222222222222-|
D|-6x6~---6-4x444444-222222222222-|
A|-4x4~---4-2x222222-000000000000-|
E|--------------------------------|

*last part
e|----------------------------------|
B|----------------------------------|
G|-6x6~---6-4x444444-2222222222-----|
D|-6x6~---6-4x444444-2222222222-----|
A|-4x4~---4-2x222222-0000000000-444-|
E|----------------------------------|
                                ...

Guitar 2
e|---------------------------------------------------|
B|---------------------------------------------------|
G|-9x9~---9-9-9~---------9---9---------------9-------|
D|-9x9~---9-9-9~-------9-------9---9---9-------9---9-|
A|----------7--------0-----0-----0---0---0-------0---|
E|-9x9~---9---7~---------------------------0---------|

e|---------------------------------------------------|
B|---------------------------------------------------|
G|-9x9~---9-9-9~---------9---9---------------9-------|
D|-9x9~---9-9-9~-------9-------9---9---9-------9---9-|
A|----------7--------0-----0-----0---0---0-------0---|
E|-9x9~---9---7~---------------------------0---------|

e|---------------------------------------------------|
B|---------------------------------------------------|
G|-9x9~---9-9-9~---------9---9---------------9-------|
D|-9x9~---9-9-9~-------9-------9---9---9-------9---9-|
A|----------7--------0-----0-----0---0---0-------0---|
E|-9x9~---9---7~---------------------------0---------|

*last part
e|-----------------------------------------------|
B|-----------------------------------------------|
G|-9x9~---9-9-9~---------9---9---------------999-|
D|-9x9~---9-9-9~-------9-------9---9---9-----999-|
A|----------7--------0-----0-----0---0---0-------|
E|-9x9~---9---7~---------------------------0-----|




PRE-CHORUS 1

(hawakan mo aking kamay)

Guitar 1
e|----------------------------------------------------------|
B|----------------------------------------------------------|
G|----------------------------------------------------------|
D|----------------------------------------------------------|
A|-0000000000000-444-0000000000000-444-0000000000000-444-0~-|
E|----------------------------------------------------------|
   ............. ... ............. ... ............. ... 

Guitar 2
e|--------------------------------------------------------------12+-|
B|------------------------------------------------------------------|
G|-6-6-6-6-6-6-8-8-9-9-9-9-9-9-9-9-6-6-6-6-6-6-8-8-9-9-9-9-9~-------|
D|--7-7-7-7-7-7-9-9-9-9-9-9-9-9-9-9-7-7-7-7-7-7-9-9-9-9-9-9---------|
A|------------------------------------------------------------------|
E|------------------------------------------------------------------|


CHORUS

(paalam sa ting huling sayaw)

Guitar 1
e|---------------------------------------------------------------------|
B|---------------------------------------------------------------------|
G|-----------------------------------66666666-9999999-2222222222222222-|
D|-22222222-4444444-7777777777777777-66666666-9999999-2222222222222222-|
A|-22222222-4444444-7777777777777777-44444444-7777777-0000000000000000-|
E|-00000000-2222222-5555555555555555-----------------------------------|

e|---------------------------------------------------------------------|
B|---------------------------------------------------------------------|
G|-----------------------------------66666666-9999999-2222222222222222-|
D|-22222222-4444444-7777777777777777-66666666-9999999-2222222222222222-|
A|-22222222-4444444-7777777777777777-44444444-7777777-0000000000000000-|
E|-00000000-2222222-5555555555555555-----------------------------------|

Guitar 2 
e|--------------------------------------------------------------------------|
B|--------------------------------------------------------------------------|
G|-----------------------------------66666666-9999999-22222222~-------------|
D|-22222222-4444444-7777777777777777-66666666-9999999-22222222~-------------|
A|-22222222-4444444-7777777777777777-44444444-7777777-00000000~-------------|
E|-00000000-2222222-5555555555555555-----------------------------*pickslide-|

e|--------------------------------------------------------------------------------------|
B|-9-9-9-9-9-9-9-9-10-10-10-10-10-10-10-14-14-14-14-14-14-14-14-14-14-14-14-14-14-14-14-|
G|-9-9-9-9-9-9-9-9-9--9--9--9--9--9--9--14-14-14-14-14-14-14-14-14-14-14-14-14-14-14-14-|
D|--------------------------------------------------------------------------------------|
A|--------------------------------------------------------------------------------------|
E|--------------------------------------------------------------------------------------|

e|--------------------------------------------------------------------------------------|
B|-9-9-9-9-9-9-9-9-10-10-10-10-10-10-10-12-12-12-12-12-12-12-12-12-12-12-12-12-12-12-12-|
G|-9-9-9-9-9-9-9-9-9--9--9--9--9--9--9--9--9--9--9--9--9--9--9--9--9--9--9--9--9--9--9--|
D|--------------------------------------------------------------------------------------|
A|--------------------------------------------------------------------------------------|
E|--------------------------------------------------------------------------------------|


VERSE 2

(di namalayan na malalim na ang gabi)

Guitar 1
e|--------------------------------|
B|--------------------------------|
G|-6x6~---6-4x444444-222222222222-|
D|-6x6~---6-4x444444-222222222222-|
A|-4x4~---4-2x222222-000000000000-|
E|--------------------------------|

e|--------------------------------|
B|--------------------------------|
G|-6x6~---6-4x444444-222222222222-|
D|-6x6~---6-4x444444-222222222222-|
A|-4x4~---4-2x222222-000000000000-|
E|--------------------------------|

Guitar 2
e|---------------------------------------------------|
B|---------------------------------------------------|
G|-9x9~---9-9-9~---------9---9---------------9-------|
D|-9x9~---9-9-9~-------9-------9---9---9-------9---9-|
A|----------7--------0-----0-----0---0---0-------0---|
E|-9x9~---9---7~---------------------------0---------|

e|---------------------------------------------------|
B|---------------------------------------------------|
G|-9x9~---9-9-9~---------9---9---------------9-------|
D|-9x9~---9-9-9~-------9-------9---9---9-------9---9-|
A|----------7--------0-----0-----0---0---0-------0---|
E|-9x9~---9---7~---------------------------0---------|



(kay tamis, kay sarap)

Guitar 1
e|--------------------------------|
B|--------------------------------|
G|-666------444------222222222222-|
D|-666------444------222222222222-|
A|-444------222------000000000000-|
E|--------------------------------|

Guitar 2
e|-------------------0~----------------|
B|-------------------0~----------------|
G|-999------999------9~-----9--------9-|
D|-999------999------9~--------9-------|
A|-------------------0~-----------0----|
E|-999------777------------------------|


(kailangan na yata nating umuwi)

Guitar 1
e|----------------------------------|
B|----------------------------------|
G|-6x6~---6-4x444444-2222222222-----|
D|-6x6~---6-4x444444-2222222222-----|
A|-4x4~---4-2x222222-0000000000-444-|
E|----------------------------------|
                                ...

Guitar 2
e|-----------------------------------------------|
B|-----------------------------------------------|
G|-9x9~---9-9-9~---------9---9---------------999-|
D|-9x9~---9-9-9~-------9-------9---9---9-----999-|
A|----------7--------0-----0-----0---0---0-------|
E|-9x9~---9---7~---------------------------0-----|


PRE CHORUS 2

(hawakan mo ang aking kamay)

Guitar 1
e|----------------------------------------------------------|
B|----------------------------------------------------------|
G|----------------------------------------------------------|
D|----------------------------------------------------------|
A|-0000000000000-444-0000000000000-444-0000000000000-444-0~-|
E|----------------------------------------------------------|
   ............. ... ............. ... ............. ... 

Guitar 2
e|------------------------------------------------------------|
B|------------------------------------------------------------|
G|-6-6-6-6-6-6-8-8-9-9-9-9-9-9-9-9-6-6-6-6-6-6-8-8-9-9-9-9-9~-|
D|--7-7-7-7-7-7-9-9-9-9-9-9-9-9-9-9-7-7-7-7-7-7-9-9-9-9-9-9---|
A|------------------------------------------------------------|
E|------------------------------------------------------------|


CHORUS 2

(paalam sa ting huling sayaw..)

Guitar 1
e|---------------------------------------------------------------------|
B|---------------------------------------------------------------------|
G|-----------------------------------66666666-9999999-2222222222222222-|
D|-22222222-4444444-7777777777777777-66666666-9999999-2222222222222222-|
A|-22222222-4444444-7777777777777777-44444444-7777777-0000000000000000-|
E|-00000000-2222222-5555555555555555-----------------------------------|

e|---------------------------------------------------------------------|
B|---------------------------------------------------------------------|
G|-----------------------------------66666666-9999999-2222222222222222-|
D|-22222222-4444444-7777777777777777-66666666-9999999-2222222222222222-|
A|-22222222-4444444-7777777777777777-44444444-7777777-0000000000000000-|
E|-00000000-2222222-5555555555555555-----------------------------------|


Guitar 2
e|-------------------------------------------------------------------------------------------------|
B|------------9-9-9-9-9-9-9-9-10-10-10-10-10-10-10-14-14-14-14-14-14-14-14-14-14-14-14-14-14-14-14-|
G|------------9-9-9-9-9-9-9-9-9--9--9--9--9--9--9--14-14-14-14-14-14-14-14-14-14-14-14-14-14-14-14-|
D|-------------------------------------------------------------------------------------------------|
A|-------------------------------------------------------------------------------------------------|
E|-*pickslide--------------------------------------------------------------------------------------|

e|--------------------------------------------------------------------------------------|
B|-9-9-9-9-9-9-9-9-10-10-10-10-10-10-10-12-12-12-12-12-12-12-12-12-12-12-12-12-12-12-12-|
G|-9-9-9-9-9-9-9-9-9--9--9--9--9--9--9--9--9--9--9--9--9--9--9--9--9--9--9--9--9--9--9--|
D|--------------------------------------------------------------------------------------|
A|--------------------------------------------------------------------------------------|
E|--------------------------------------------------------------------------------------|


e|-16--16--16--16---------------------------------------------------|
B|-----------------17--17--17--17--16--16--16--16--17--17--17--17---|
G|---16--16--16--16--16--16--16--16--16--16--16--16--16--16--16--16-|
D|------------------------------------------------------------------|
A|------------------------------------------------------------------|
E|------------------------------------------------------------------|

e|-16-16-16-16-16-16-16-16-12-12-12-12-12-12-12-12-7-7-7-7-7-7-7-7-7-7-7-7-7-7-7-7-|
B|-17-17-17-17-17-17-17-17-0--0--0--0--0--0--0--0--5-5-5-5-5-5-5-5-5-5-5-5-5-5-5-5-|
G|-16-16-16-16-16-16-16-16-------------------------4-4-4-4-4-4-4-4-4-4-4-4-4-4-4-4-|
D|---------------------------------------------------------------------------------|
A|---------------------------------------------------------------------------------|
E|---------------------------------------------------------------------------------|


ADLIB part 1

Guitar 2
e|-------------------------------------|
B|-------------------------------------|
G|-------------------------------------|
D|-------------------------------------|
A|-------------------------------------|
E|-9999999999999-000-9999999999999-000-|

then 

Guitar 1
e|-----------------------------------------|
B|---------------------------------------p-|
G|-6666666666666-----6666666666666-----6-a-|
D|-6666666666666-222-6666666666666-222-6-u-|
A|-4444444444444-222-4444444444444-222-4-s-|
E|---------------000---------------000---e-|

Guitar 2
e|-----------------------------------------|
B|---------------------------------------p-|
G|---------------------------------------a-|
D|---------------------------------------u-|
A|---------------------------------------s-|
E|-9999999999999-000-9999999999999-000-9-e-|


ADLIB part 2


Guitar 1
e|-------------------------------------------------------------------------|
B|-------------------------------------------------------------------------|
G|-6666666666666-----6666666666666-----6666666666666-----6666666666666-----|
D|-6666666666666-222-6666666666666-222-6666666666666-222-6666666666666-222-|
A|-4444444444444-222-4444444444444-222-4444444444444-222-4444444444444-222-|
E|---------------000---------------000---------------000---------------000-|

e|---------------------------------------------------------------------------|
B|---------------------------------------------------------------------------|
G|-6666666666666-----6666666666666-----6666666666666-----6666666666666-----6-|
D|-6666666666666-222-6666666666666-222-6666666666666-222-6666666666666-222-6-|
A|-4444444444444-222-4444444444444-222-4444444444444-222-4444444444444-222-4-|
E|---------------000---------------000---------------000---------------000---|

Guitar 2

*itong part na ito ay dapat sa rhythm(yung sa part ni Led Tuyay kaya lang, may chance na matabon)
e|----------------------------------------------------------------------|
B|----------------------------------------------------------------------|
G|-6-8-9~---999-8-6~---666-8-9~---999-8---------------------------------|
D|--------------------------------------6~---6/9-6/9-6/9-6/9-9/11-11-11-|
A|----------------------------------------------------------------------|
E|----------------------------------------------------------------------|

e|---------------0---0--0------------|
B|-----------12----12-12-12/14-14-14-|
G|-11--11--11--11--------------------|
D|---11--11--------------------------|
A|-----------------------------------|
E|-----------------------------------|

(ito talaga yung sa part ni Jomal Linao)
*pwedeng walang wah pero mas maganda kung meron
e|-----------------------------------------------------------------|
B|-14--14--14--14--14--14--14--14--14--14--14--14--14--14--14--14--|
G|-16b-16b-16b-16b-16b-16b-16b-16b-16b-16b-16b-16b-16b-16b-16b-16b-|
D|-----------------------------------------------------------------|
A|-----------------------------------------------------------------|
E|-----------------------------------------------------------------|

e|-----------------------------------------------------------------|
B|-16--16--16--16--16--16--16--16--16--16--16--16--16--16--16--16--|
G|-18b-18b-18b-18b-18b-18b-18b-18b-18b-18b-18b-18b-18b-18b-18b-18b-|
D|-----------------------------------------------------------------|
A|-----------------------------------------------------------------|
E|-----------------------------------------------------------------|

e|-----------------------------------------------------------------|
B|-14--14--14--14--14--14--14--14--14--14--14--14--14--14--14--14--|
G|-16b-16b-16b-16b-16b-16b-16b-16b-16b-16b-16b-16b-16b-16b-16b-16b-|
D|-----------------------------------------------------------------|
A|-----------------------------------------------------------------|
E|-----------------------------------------------------------------|

e|-----------------------------------------------------------------|
B|-14--14--14--14--14--14--14--14--14--14--14--14--14--14--14--14--|
G|-16b-16b-16b-16b-16b-16b-16b-16b-16b-16b-16b-16b-16b-16b-16b-16b-|
D|-----------------------------------------------------------------|
A|-----------------------------------------------------------------|
E|-----------------------------------------------------------------|


BRIDGE

(paalam sa ting huling sayaw)

Guitar 2 
e|--------------------------------------------------------------------------|
B|--------------------------------------------------------------------------|
G|-----------------------------------66666666-9999999-22222222-22222222-----|
D|-22222222-4444444-7777777777777777-66666666-9999999-22222222-22222222-----|
A|-22222222-4444444-7777777777777777-44444444-7777777-00000000-00000000-----|
E|-00000000-2222222-5555555555555555----------------------------------------|
   ........ ....... ................ ........ ....... ........

(kaya't sabay tayong bibitaw)

Guitar 1
e|-----------|
B|-----------|
G|-----------|
D|-2~---4----| hanggang F#m lang
A|-2~---4~---|
E|-0~---2~---|

Guitar 2 
e|---------0--------------0-------------0--------------0-----|
B|-----------0------0-------0------0------0------0-------0---|
G|---1---------1------2-------2------2------2------2-------2-|
D|-----2----------------4--------------2-------------2-------|
A|-------2--------4--------------0-------------0-------------|
E|-0---------------------------------------------------------|

e|---------0--------------0---------------0-------------0-----|
B|---0-------0------0--------0------0-------0-----0-------0---|
G|-----6-------6------6--------6------2-------2-----2-------2-|
D|-------6--------------6---------------2-------------2-------|
A|-4--------------6---------------0-------------0-------------|
E|------------------------------------------------------------|


FINAL CHORUS

(paalam sa ting huling sayaw)

Guitar 1
e|---------------------------------------------------------------------|
B|---------------------------------------------------------------------|
G|-----------------------------------66666666-9999999-2222222222222222-|
D|-22222222-4444444-7777777777777777-66666666-9999999-2222222222222222-|
A|-22222222-4444444-7777777777777777-44444444-7777777-0000000000000000-|
E|-00000000-2222222-5555555555555555-----------------------------------|

e|---------------------------------------------------------------------|
B|---------------------------------------------------------------------|
G|-----------------------------------66666666-9999999-2222222222222222-|
D|-22222222-4444444-7777777777777777-66666666-9999999-2222222222222222-|
A|-22222222-4444444-7777777777777777-44444444-7777777-0000000000000000-|
E|-00000000-2222222-5555555555555555-----------------------------------|

Guitar 2
e|-------------------------------------------------------------------------------------------------|
B|------------9-9-9-9-9-9-9-9-10-10-10-10-10-10-10-14-14-14-14-14-14-14-14-14-14-14-14-14-14-14-14-|
G|------------9-9-9-9-9-9-9-9-9--9--9--9--9--9--9--14-14-14-14-14-14-14-14-14-14-14-14-14-14-14-14-|
D|-------------------------------------------------------------------------------------------------|
A|-------------------------------------------------------------------------------------------------|
E|-*pickslide--------------------------------------------------------------------------------------|

e|--------------------------------------------------------------------------------------|
B|-9-9-9-9-9-9-9-9-10-10-10-10-10-10-10-12-12-12-12-12-12-12-12-12-12-12-12-12-12-12-12-|
G|-9-9-9-9-9-9-9-9-9--9--9--9--9--9--9--9--9--9--9--9--9--9--9--9--9--9--9--9--9--9--9--|
D|--------------------------------------------------------------------------------------|
A|--------------------------------------------------------------------------------------|
E|--------------------------------------------------------------------------------------|


e|-16--16--16--16---------------------------------------------------|
B|-----------------17--17--17--17--16--16--16--16--17--17--17--17---|
G|---16--16--16--16--16--16--16--16--16--16--16--16--16--16--16--16-|
D|------------------------------------------------------------------|
A|------------------------------------------------------------------|
E|------------------------------------------------------------------|

e|-16-16-16-16-16-16-16-16-12-12-12-12-12-12-12-12-7-7-7-7-7-7-7-7-7-7-7-7-7-7-7-7-|
B|-17-17-17-17-17-17-17-17-0--0--0--0--0--0--0--0--5-5-5-5-5-5-5-5-5-5-5-5-5-5-5-5-|
G|-16-16-16-16-16-16-16-16-------------------------4-4-4-4-4-4-4-4-4-4-4-4-4-4-4-4-|
D|---------------------------------------------------------------------------------|
A|---------------------------------------------------------------------------------|
E|---------------------------------------------------------------------------------|


OUTRO

Guitar 2
e|----------|
B|----------|
G|----------|
D|----------|
A|----------|
E|-99999999-|

then

Guitar 1
e|-------------------------------------------------------------------------|
B|-------------------------------------------------------------------------|
G|-6666666666666-----6666666666666-----6666666666666-----6666666666666-----|
D|-6666666666666-222-6666666666666-222-6666666666666-222-6666666666666-222-|
A|-4444444444444-222-4444444444444-222-4444444444444-222-4444444444444-222-|
E|---------------000---------------000---------------000---------------000-|

Guitar 2
e|-------------------------------------------------------------------------|
B|-------------------------------------------------------------------------|
G|-------------------------------------------------------------------------|
D|-------------------------------------------------------------------------|
A|-------------------------------------------------------------------------|
E|-9999999999999-000-9999999999999-000-9999999999999-000-9999999999999-000-|


Enjoy po. Comment kung may correction :)
 
 
Kamikazee - Huling Sayaw Tab :: indexed at Ultimate Guitar.
Huling Sayaw tabs @ 911Tabs

About the artist behind Huling Sayaw Tab:

Kamikazee is a rock band from the Philippines composed of Jay Contreras (Lead Vocalist), Jomal Linao (Guitars/Back-up Vocals), Led Zeppelin Tuyay (Guitars), Jason "Puto" Astete (Bass Guitar) and Allan "Bords" Burdeos (drums).

Indexed at Wikipedia.

Show us your talent, perform Huling Sayaw Tab!

Here you can post a video or audio performance. Tell me more ...
Where can we find your performance? Tell me more ...
Your comment:
Please, log in to post your performance.