Artists by letter: A B C D E F G H I J K L M N O P Q R S T U V W X Y Z 0-9

 
Halik Tower Sessions Tab
-------------------------------------------------------------------------------
                    Halik(Tower Session Version) - Kamikazee
-------------------------------------------------------------------------------
Tabbed by: ryrioskeshinn
E-mail:[email protected]

Tuning:Standard

Mga Tol ! May pagkapareho ito sa Mp3 Version nito kaya lang mejo iba 

Guitar 1 - Lead (Jomal Linao)
Guitar 2 - Rhythm (Led Tuyay)


************************************

| /   slide up
| \   slide down
| h   hammer-on
| ~   let it ring
| .   palm mute

************************************


INTRO

Guitar 1
e|--------------------------------------|
B|--------------------------------------|
G|-4444444444444444444444444----6/8-6\4-|
D|--------------------------------------|
A|-2222222222222222222222222~---4/6-4\2-|
E|--------------------------------------|


then


Guitar 1
e|------------------------------------------------------------------------------------------------------|
B|---7-7-7-5-4---4~---7-7---7-7--7/9-7-5-4-------7-7-7-5-4---4------7/9-7--5-4-5-4h5-5---------------7~-|
G|-4-----------6----4-----4----------------6~--4-----------6---6-4---------------------4-6~----------4~-|
D|------------------------------------------------------------------------------------------------------|
A|------------------------------------------------------------------------------------------------------|
E|-----------------------------------------------------------------------------------------*pickslide---|

Guitar 2
e|-------------------------------------|
B|-------------------------------------|
G|----4-4----------------4-4-----------|
D|-2--4-4--4-4--6-66--2--4-4---4444444-|
A|-2--2-2--4-4--6-66--2--2-2---4444444-|
E|-0-------2-2--4-44--0--------2222222-|

e|-------------------------------------|
B|-------------------------------------|
G|----4-4-------------4-4--------------|
D|-2--4-4-4-4-6-66--2-4-4--44444444-2~-|
A|-2--2-2-4-4-6-66--2-2-2--44444444-2~-|
E|-0------2-2-4-44--0------22222222-0~-|


VERSE I
 
Guitar 1
e|-------------------------------------------------|
B|-------------------------------------------------|
G|-------------------------------------------------| do it 4x then
D|-----4----4------4----4------4----4------4----4--|
A|---2----2------2----2------2----2------2----2----|
E|-0----0------0----0------2----2------4----0------|

e|-----|
B|-----|
G|-----|
D|-4~--|
A|-2~--|
E|-0~--|

Guitar 2
(mas maganda kung upward stroke sa 11th fret)
e|-------------------------------------------------------------|
B|-------------------------------------------------------------|
G|-----11----11-------11----11------11---11--------11------11--| do it 2x
D|-9-9-----9------9-9-----9------------------------------------|
A|------------------------------9-9----9-----11-11-----11------|
E|-------------------------------------------------------------|

e|---------------------------------------------------------------------------------|
B|---------------------------------------------------------------------------------|
G|-11----11----11----11----11----11----11----11----9---9---9---9---8---8---6---8---|
D|----11----11----11----11----11----11----11----11---9---9---9---9---9---9---------|
A|---------------------------------------------------------------------------------|
E|---------------------------------------------------------------------------------|

e|--------------------------------------------------------------------------------------|
B|--------------------------------------------------------------------------------------|
G|-11----11----11----11----11----11----11----11----9---9---9---9---8---8---6---8----11~-|
D|----11----11----11----11----11----11----11----11---9---9---9---9---9---9--------------|
A|--------------------------------------------------------------------------------------|
E|--------------------------------------------------------------------------------------|



CHORUS

Guitar 1
e|---------|
B|---------|
G|-6/8-6\4-|
D|---------|
A|-4/6-4\2-|
E|---------|

Both Guitar 1 and 2
e|-------------------------------------|
B|-------------------------------------|
G|----4-4----------------4-4-----------|
D|-2--4-4--4-4--6-66--2--4-4---4444444-| do it 3x
A|-2--2-2--4-4--6-66--2--2-2---4444444-|
E|-0-------2-2--4-44--0--------2222222-|

e|-------------------------------------|
B|-------------------------------------|
G|----4-4-------------4-4--------------|
D|-2--4-4-4-4-6-66--2-4-4--44444444-2~-|
A|-2--2-2-4-4-6-66--2-2-2--44444444-2~-|
E|-0------2-2-4-44--0------22222222-0~-|


VERSE 2

(mas maganda kung upward stroke sa 4th fret ng D string)

Guitar 1
e|-------------------------------------------------|
B|-------------------------------------------------|
G|-------------------------------------------------| do it 4x then
D|-----4----4------4----4------4----4------4----4--|
A|---2----2------2----2------2----2------2----2----|
E|-0----0------0----0------2----2------4----0------|
   . .  . .    . .  . .    . .  . .    . .  . .

e|-----|
B|-----|
G|-----|
D|-4~--|
A|-2~--|
E|-0~--|

Guitar 2
(mas maganda kung upward stroke sa 11th fret)
e|-------------------------------------------------------------|
B|-------------------------------------------------------------|
G|-----11----11-------11----11------11---11--------11------11--| do it 2x
D|-9-9-----9------9-9-----9------------------------------------|
A|------------------------------9-9----9-----11-11-----11------|
E|-------------------------------------------------------------|

e|---------------------------------------------------------------------------------|
B|---------------------------------------------------------------------------------|
G|-11----11----11----11----11----11----11----11----9---9---9---9---8---8---6---8---|
D|----11----11----11----11----11----11----11----11---9---9---9---9---9---9---------|
A|---------------------------------------------------------------------------------|
E|---------------------------------------------------------------------------------|

e|--------------------------------------------------------------------------------------|
B|--------------------------------------------------------------------------------------|
G|-11----11----11----11----11----11----11----11----9---9---9---9---8---8---6---8----11~-|
D|----11----11----11----11----11----11----11----11---9---9---9---9---9---9--------------|
A|--------------------------------------------------------------------------------------|
E|--------------------------------------------------------------------------------------|


CHORUS 2

Guitar 1
e|---------|
B|---------|
G|-6/8-6\4-|
D|---------|
A|-4/6-4\2-|
E|---------|

Both Guitar 1 and 2
e|-------------------------------------|
B|-------------------------------------|
G|----4-4----------------4-4-----------|
D|-2--4-4--4-4--6-66--2--4-4---4444444-| do it 4x
A|-2--2-2--4-4--6-66--2--2-2---4444444-|
E|-0-------2-2--4-44--0--------2222222-|


ADLIB

Guitar 1
e|----------|
B|-77777777-|
G|----------|
D|-44444444-|
A|----------|
E|----------|


Guitar 1 ulit
e|----------------------------------------------|
B|-7777777777777777-5555555555555555------------|
G|----------------------------------------------|
D|-4444444444444444-2222222222222222------------|
A|----------------------------------------------|
E|-----------------------------------*pickslide-|

e|---------------------------------------------------------------------------|
B|---------------------------------------------------------------------------|
G|-14-14-14-14-14-14-14-14-11-11-11-11-9-9-9-9-8-8-8-8-9-9-9-9-8-6-444444444-|
D|---------------------------------------------------------------------------|
A|-11-11-11-11-11-11-11-11-9--9--9--9--7-7-7-7-6-6-6-6-7-7-7-7-6-4-222222222-|
E|---------------------------------------------------------------------------|


Guitar 2
e|------------------------------------|
B|------------------------------------|
G|-------------------9999999999999999-| do it 2x
D|-66666666-99999999-9999999999999999-|
A|-66666666-99999999-7777777777777777-|
E|-44444444-77777777------------------|


FINAL CHORUS

Guitar 1
e|---------|
B|---------|
G|-6/8-6\4-|
D|---------|
A|-4/6-4\2-|
E|---------|

Both Guitar 1 and 2
e|-------------------------------------|
B|-------------------------------------|
G|----4-4----------------4-4-----------|
D|-2--4-4--4-4--6-66--2--4-4---4444444-| do it 2x
A|-2--2-2--4-4--6-66--2--2-2---4444444-|
E|-0-------2-2--4-44--0--------2222222-|


(ngayon ko lang natutunan.. )
 
Guitar 1
e|----------------------------------------------------------------------------------------------------|
B|---7-7-7-5-4---4~---7-7---7-7--7/9-7-5-4-------7-7-7-5-4---4------7/9-7--5-4-5-4h5-5----------------|
G|-4-----------6----4-----4----------------6~--4-----------6---6-4---------------------4-6~-----------|
D|----------------------------------------------------------------------------------------------------|
A|----------------------------------------------------------------------------------------------------|
E|-----------------------------------------------------------------------------------------*pickslide-|

Guitar 2
e|-------------------------------------|
B|-------------------------------------|
G|----4-4----------------4-4-----------|
D|-2--4-4--4-4--6-66--2--4-4---4444444-| do it 2x
A|-2--2-2--4-4--6-66--2--2-2---4444444-|
E|-0-------2-2--4-44--0--------2222222-|



OUTRO

Guitar 1
e|-------------|
B|-11x11x11-11-|
G|-------------|
D|-------------|
A|-------------|
E|-------------|

e|------------|
B|------------|
G|------------|
D|-2~-44~-44~-|
A|-2~-22--44~-|
E|-0~-----22~-|

Guitar 2
e|------------|
B|------------|
G|------------|
D|-2~-44~-44~-| do it 2x
A|-2~-22--44~-|
E|-0~-----22~-|


Dedicated sa bulateworms at para sa inspirasyon ko


 
 
Kamikazee - Halik Tower Sessions Tab :: indexed at Ultimate Guitar.
Halik Tower Sessions tabs @ 911Tabs

About the artist behind Halik Tower Sessions Tab:

Kamikazee is a rock band from the Philippines composed of Jay Contreras (Lead Vocalist), Jomal Linao (Guitars/Back-up Vocals), Led Zeppelin Tuyay (Guitars), Jason "Puto" Astete (Bass Guitar) and Allan "Bords" Burdeos (drums).

Indexed at Wikipedia.

Show us your talent, perform Halik Tower Sessions Tab!

Here you can post a video or audio performance. Tell me more ...
Where can we find your performance? Tell me more ...
Your comment:
Please, log in to post your performance.