Artists by letter: A B C D E F G H I J K L M N O P Q R S T U V W X Y Z 0-9

 
Sos Acoustic Chords
Hi, this is my first tab. I figured this song out on my own so if there is any problems please let me know.
I find it easier just to use power chords for the chorus. I hope you enjoy!



(Verse)
e|---------------------------|--------------------------|
B|---------------------------|--------------------------|
G|---------------------------|------5-----5-----3/4-----|
D|----------5---------5------|--------------------------|   X4
A|-------------------------2/|--3-----------------------|
E|-----3---------3-----------|--------------------------|

e|---------------------------|--------------------------|
B|---------------------------|--------------------------|
G|---------------------------|--------7---------7-------|
D|---------------------------|--------------------------|
A|----------7---------7----4/|--5----------5------------|
E|-----0---------0-----------|--------------------------|

e|---------------------------|--------------------------|
B|---------------------------|--------------------------|
G|---------------------------|--------------------------|
D|------------7-----------7--|----------7---------7-----|
A|---------------------------|--------------------------|
E|-----4/5----------5--------|--4/5----------5----------|

(Chorus)

Em            C
Oh This is an S.O.S.
             G
Don't wanna second guess,
            D
This is the bottom line
      Em
It's true
          C
I gave my all for you,
       G
now my heart's in two
      D                    Am
And I can't find the other half
               C               G
It's like I'm walking on broken glass,
       D
better believe I bled
Am           C
      It's a call I'll never get

(Verse)
e|---------------------------|--------------------------|
B|---------------------------|--------------------------|
G|---------------------------|------5-----5-----3/4-----|
D|----------5---------5------|--------------------------|   X3
A|-------------------------2/|--3-----------------------|
E|-----3---------3-----------|--------------------------|

e|---------------------------|--------------------------|
B|---------------------------|--------------------------|
G|---------------------------|--------7---------7-------|
D|---------------------------|--------------------------|
A|----------7---------7----4/|--5----------5------------|
E|-----0---------0-----------|--------------------------|

e|---------------------------|--------------------------|
B|---------------------------|--------------------------|
G|---------------------------|--------------------------|
D|------------7-----------7--|----------7---------7-----|
A|---------------------------|--------------------------|
E|-----4/5----------5--------|--4/5----------5----------|

(Chorus)

Em            C
Oh This is an S.O.S.
             G
Don't wanna second guess,
            D
This is the bottom line
      Em
It's true
          C
I gave my all for you,
       G
now my heart's in two
      D                    Am
And I can't find the other half
               C               G
It's like I'm walking on broken glass,
       D
better believe I bled
Am           C
      It's a call I'll never get

(Bridge)

Em         C
      Next time I'll see you
G                         D
    I'm giving you a high five
      Am                        D
cause hugs are over rated, just FYI

(Chorus)

Em            C
Oh This is an S.O.S.
             G
Don't wanna second guess,
            D
This is the bottom line
      Em
It's true
          C
I gave my all for you,
       G
now my heart's in two (yeah)


Em            C
Oh This is an S.O.S.
             G
Don't wanna second guess,
            D
This is the bottom line
      Em
It's true
          C
I gave my all for you,
       G
now my heart's in two
      D                    Am
And I can't find the other half
               C               G
It's like I'm walking on broken glass,
       D
better believe I bled
Am           C
      It's a call I'll never get
                        (let c ring out)
 
 
Jonas Brothers - Sos Acoustic Chords :: indexed at Ultimate Guitar.
Sos Acoustic tabs @ 911Tabs

About the artist behind Sos Acoustic Chords:

The Jonas Brothers are an American pop-rock band from Wyckoff, New Jersey made up of three brothers: Kevin, Joe, and Nick Jonas. They have released two albums - It's About Time in 2006, and Jonas Brothers in 2007, and will release A Little Bit Longer in 2008.

Indexed at Wikipedia.

Show us your talent, perform Sos Acoustic Chords!

Here you can post a video or audio performance. Tell me more ...
Where can we find your performance? Tell me more ...
Your comment:
Please, log in to post your performance.