Artists by letter: A B C D E F G H I J K L M N O P Q R S T U V W X Y Z 0-9

 
Time To Go Tab
Tabbed from this live performance: https://youtu.be/q_3LARzsfMw


Capo 3rd fret


[Intro]

    Em                      
e|--0--0--0--0--0--0--0--0--0--0--0--0--0--0--0--0--|
B|--0--0--0--0--0--0--0--0--0--0--0--0--0--0--0--0--|
G|--0--0--0--0--0--0--0--0--0--0--0--0--0--0--0--0--|
D|--2--2--2--2--2--2--2--2--2--2--2--2--2--2--2--2--|
A|--2--2--2--2--2--2--2--2--2--2--2--2--2--2--2--2--|
E|--0--0--0--0--0--0--0--0--0--0--0--0--0--0--0--0--|


[Verse 1]

    Em-1          Em-2          Em-3          G/E                        
e|--------------------------------------------------------|
B|--8--8--8--8----7--7--7--7----5--5--5--5----3--3--3--3--|
G|--0--0--0--0----0--0--0--0----0--0--0--0----4--4--4--4--|
D|--5--5--5--5----5--5--5--5----5--5--5--5----0--0--0--0--|
A|--7--7--7--7----7--7--7--7----7--7--7--7----5--5--5--5--|
E|--0--0--0--0----0--0--0--0----0--0--0--0----0--0--0--0--|

 We pushed the    horses as     long as we    could


    Am-1          Am-2          Am-3          G/A                        
e|--8--8--8--8----7--7--7--7----5--5--5--5----3--3--3--3--|
B|--------------------------------------------0--0--0--0--|
G|--5--5--5--5----5--5--5--5----5--5--5--5----4--4--4--4--|
D|--7--7--7--7----7--7--7--7----7--7--7--7----5--5--5--5--|
A|--0--0--0--0----0--0--0--0----0--0--0--0----0--0--0--0--|
E|--------------------------------------------------------|

          Over    Coolie Pass into          Sierra Woods


    Em-1             Em-2             Em-3          G/E                        
e|--------------------------------------------------------------|
B|--8--8--8--8-------7--7--7--7-------5--5--5--5----3--3--3--3--|
G|--0--0--0--0-------0--0--0--0-------0--0--0--0----4--4--4--4--|
D|--5--5--5--5-------5--5--5--5-------5--5--5--5----0--0--0--0--|
A|--7--7--7--7-------7--7--7--7-------7--7--7--7----5--5--5--5--|
E|--0--0--0--0-------0--0--0--0-------0--0--0--0----0--0--0--0--|
                  
          Burned the wagon wheels for heat,     for food,    we


    Am-1           Am-2            Am-3                  G/A                        
e|--8--8--8--8-----7--7--7--7------5--5--5--5------------3--3--3--3-----|
B|-------------------------------------------------------0--0--0--0-----|
G|--5--5--5--5-----5--5--5--5------5--5--5--5------------4--4--4--4-----|
D|--7--7--7--7-----7--7--7--7------7--7--7--7------------5--5--5--5-----|
A|--0--0--0--0-----0--0--0--0------0--0--0--0------------0--0--0--0-----|
E|----------------------------------------------------------------------|

          Cut down Timothy Gant to die, the twelve could make it through


[Chorus 1]

    C                  G
e|-----------------------------------|
B|--1--1--1--1---------0--0--0--0----|
G|--0--0--0--0---------0--0--0--0----|
D|--2--2--2--2---------0--0--0--0----|
A|--3--3--3--3---------2--2--2--2----|
E|---------------------3--3--3--3----|

       Time to go, time to go, go


    C                  G       G/F#    Em
e|-------------------------------------0--0--0--0--0--0--0--0--|
B|--1--1--1--1---------0--0----0--0----0--0--0--0--0--0--0--0--|
G|--0--0--0--0---------0--0----0--0----0--0--0--0--0--0--0--0--|
D|--2--2--2--2---------0--0----0--0----2--2--2--2--2--2--2--2--|
A|--3--3--3--3---------2--2----0--0----2--2--2--2--2--2--2--2--|
E|---------------------3--3----2--2----0--0--0--0--0--0--0--0--|

       Time to go, time to go,  go,    go


    C                  G
e|-----------------------------------|
B|--1--1--1--1---------0--0--0--0----|
G|--0--0--0--0---------0--0--0--0----|
D|--2--2--2--2---------0--0--0--0----|
A|--3--3--3--3---------2--2--2--2----|
E|---------------------3--3--3--3----|

       Time to go, time to go, go, go


    C                  G       G/F#    Em
e|-------------------------------------0--0--0--0--0--0--0--0--|
B|--1--1--1--1---------0--0----0--0----0--0--0--0--0--0--0--0--|
G|--0--0--0--0---------0--0----0--0----0--0--0--0--0--0--0--0--|
D|--2--2--2--2---------0--0----0--0----2--2--2--2--2--2--2--2--|
A|--3--3--3--3---------2--2----0--0----2--2--2--2--2--2--2--2--|
E|---------------------3--3----2--2----0--0--0--0--0--0--0--0--|

       Time to go, time to go,  go,    go


    C                   G
e|--0----------------------------------------------|
B|--1-------------------0--------------------------|
G|--0-------------------0--------------------------|
D|--2-------------------0--------------------------|
A|--3-------------------2--------------------------|
E|----------------------3--------------------------|

       We'll never come back, it's time to go


    C                       G
e|--0----------------------------------------------|
B|--1-----------------------0----------------------|
G|--0-----------------------0----------------------|
D|--2-----------------------0----------------------|
A|--3-----------------------2----------------------|
E|--------------------------3----------------------|

      Try to make it to the shore, it's time to go


    C           G          G/F#      Em
e|--0--------------------------------0--0--0--0--0--0--0--0--0--0--0--0--0--0--0--0--|
B|--1-----------0----------0---------0--0--0--0--0--0--0--0--0--0--0--0--0--0--0--0--|
G|--0-----------0----------0---------0--0--0--0--0--0--0--0--0--0--0--0--0--0--0--0--|
D|--2-----------0----------0---------2--2--2--2--2--2--2--2--2--2--2--2--2--2--2--2--|
A|--3-----------2----------0---------2--2--2--2--2--2--2--2--2--2--2--2--2--2--2--2--|
E|--------------3----------2---------0--0--0--0--0--0--0--0--0--0--0--0--0--0--0--0--|

      And now I know, it's time to go


[Verse 2]

    Em-1           Em-2          Em-3          G/E                        
e|----------------------------------------------------------|
B|--8--8--8--8-----7--7--7--7----5--5--5--5----3--3--3--3---|
G|--0--0--0--0-----0--0--0--0----0--0--0--0----4--4--4--4---|
D|--5--5--5--5-----5--5--5--5----5--5--5--5----0--0--0--0---|
A|--7--7--7--7-----7--7--7--7----7--7--7--7----5--5--5--5---|
E|--0--0--0--0-----0--0--0--0----0--0--0--0----0--0--0--0---|

 In Bakersfield we found     a planned     community,   with


    Am-1            Am-2             Am-3          G/A                        
e|--8--8--8--8------7--7--7--7-------5--5--5--5----3--3--3--3--|
B|-------------------------------------------------0--0--0--0--|
G|--5--5--5--5------5--5--5--5-------5--5--5--5----4--4--4--4--|
D|--7--7--7--7------7--7--7--7-------7--7--7--7----5--5--5--5--|
A|--0--0--0--0------0--0--0--0-------0--0--0--0----0--0--0--0--|
E|-------------------------------------------------------------|

          Plentiful two bedrooms and full         amenities


    Em-1           Em-2          Em-3          G/E                        
e|---------------------------------------------------------|
B|--8--8--8--8-----7--7--7--7----5--5--5--5----3--3--3--3--|
G|--0--0--0--0-----0--0--0--0----0--0--0--0----4--4--4--4--|
D|--5--5--5--5-----5--5--5--5----5--5--5--5----0--0--0--0--|
A|--7--7--7--7-----7--7--7--7----7--7--7--7----5--5--5--5--|
E|--0--0--0--0-----0--0--0--0----0--0--0--0----0--0--0--0--|
 
          Sold the horses,    we sold      our guns,    a  


    Am-1             Am-2          Am-3                    G/A                        
e|--8--8--8--8-------7--7--7--7----5--5--5--5--------------3--3--3--3----------|
B|---------------------------------------------------------0--0--0--0----------|
G|--5--5--5--5-------5--5--5--5----5--5--5--5--------------4--4--4--4----------|
D|--7--7--7--7-------7--7--7--7----7--7--7--7--------------5--5--5--5----------|
A|--0--0--0--0-------0--0--0--0----0--0--0--0--------------0--0--0--0----------|
E|-----------------------------------------------------------------------------|

          Specter of Timothy Gant appeared on my lawn, and told me to run, it’s


[Chorus 2]

    C                  G
e|----------------------------------------|
B|--1--1--1--1---------0--0--0--0---------|
G|--0--0--0--0---------0--0--0--0---------|
D|--2--2--2--2---------0--0--0--0---------|
A|--3--3--3--3---------2--2--2--2---------|
E|---------------------3--3--3--3---------|

       Time to go, time to go, time to go


    C                  G       G/F#    Em
e|-------------------------------------0--0--0--0--0--0--0--0--|
B|--1--1--1--1---------0--0----0--0----0--0--0--0--0--0--0--0--|
G|--0--0--0--0---------0--0----0--0----0--0--0--0--0--0--0--0--|
D|--2--2--2--2---------0--0----0--0----2--2--2--2--2--2--2--2--|
A|--3--3--3--3---------2--2----0--0----2--2--2--2--2--2--2--2--|
E|---------------------3--3----2--2----0--0--0--0--0--0--0--0--|

       Time to go, time to go,  go,    go


    C                  G
e|-----------------------------------|
B|--1--1--1--1---------0--0--0--0----|
G|--0--0--0--0---------0--0--0--0----|
D|--2--2--2--2---------0--0--0--0----|
A|--3--3--3--3---------2--2--2--2----|
E|---------------------3--3--3--3----|

       Time to go, time to go, go, go


    C                  G       G/F#    Em
e|-------------------------------------0--0--0--0--0--0--0--0--|
B|--1--1--1--1---------0--0----0--0----0--0--0--0--0--0--0--0--|
G|--0--0--0--0---------0--0----0--0----0--0--0--0--0--0--0--0--|
D|--2--2--2--2---------0--0----0--0----2--2--2--2--2--2--2--2--|
A|--3--3--3--3---------2--2----0--0----2--2--2--2--2--2--2--2--|
E|---------------------3--3----2--2----0--0--0--0--0--0--0--0--|

       Time to go, time to go,  go,    go


    C                      G
e|--0----------------------------------------------|
B|--1----------------------0-----------------------|
G|--0----------------------0-----------------------|
D|--2----------------------0-----------------------|
A|--3----------------------2-----------------------|
E|-------------------------3-----------------------|

       We'll never make it back, it's time to go


    C                        G
e|--0----------------------------------------------|
B|--1------------------------0---------------------|
G|--0------------------------0---------------------|
D|--2------------------------0---------------------|
A|--3------------------------2---------------------|
E|---------------------------3---------------------|

      And vanish through the cracks, of molten ash


    C                     G         G/F#       Em
e|--0-------------------------------0----------0---|
B|--1---------------------0---------0----------0---|
G|--0---------------------0---------0----------0---|
D|--2---------------------0---------0----------2---|
A|--3---------------------2---------0----------2---|
E|------------------------3---------2----------0---|

      Don't know what you had, it's time to go



 
 
John Vanderslice - Time To Go Tab :: indexed at Ultimate Guitar.
Time To Go tabs @ 911Tabs
People who played John Vanderslice - Time To Go Tab also played these songs by John Vanderslice:
Kookaburra Tab, Trance Manual Chords, White Dove Chords, Exodus Damage Chords, Letter To The East Coast Tab, Exodus Damage Chords

About the artist behind Time To Go Tab:

John Vanderslice (born May 22, 1967 in Gainesville, Florida) is an American musician, formerly of mk Ultra but now performing with his own band.

Indexed at Wikipedia.

Show us your talent, perform Time To Go Tab!

Here you can post a video or audio performance. Tell me more ...
Where can we find your performance? Tell me more ...
Your comment:
Please, log in to post your performance.