Artists by letter: A B C D E F G H I J K L M N O P Q R S T U V W X Y Z 0-9

Watching The Wheels Chords (ver 9) - John Lennon


 
Watching The Wheels Chords
---------------------------------------------------------------------------
            Watching the Wheels " John Lennon
---------------------------------------------------------------------------
Tabbed by: maguri
Tuning: Standard

John Lennon
Watching the Wheels (1980)
(Lennon)

From: "Double Fantasy"

---------------------------------------------------------------------------

Riff (verse)
  C                                 F
  1 + 2 + 3 + 4 +  1 + 2 + 3 + 4 +  1 + 2 + 3 + 4 +  1 + 2 + 3 + 4 +
e|0---------------|0---------------|1-----0---------|----------------|
B|1---------------|1---------------|1-----1-----1---|--------1-------|
G|0---------------|0---------------|2-----2-----2---|--------0h2-----|
D|2---------------|2---------------|3-----------3---|--------3-------|
A|3---------------|3---------------|----------------|----------------|
E|----------------|----------------|----------------|----------------|

BRIDGE
  F                Dm               G                G7/B    G
  1 + 2 + 3 + 4 +  1 + 2 + 3 + 4 +  1 + 2 + 3 + 4 +  1 + 2 + 3 + 4 +
e|1---------------|1---------------|3---------------|----------------|
B|1---------------|3---------------|0---------------|----3-----------|
G|2---------------|2---------------|0---------------|----0-----------|
D|3---------------|0---------------|0---------------|----3-----------|
A|----------------|----------------|---------------0h2-------2p0-----|
E|----------------|----------------|3---------------|------------3---|

LINK to chorus
  G
  1 + 2 + 3 + 4 +  
e|----------------|
B|----------------|
G|----0-----0-----|
D|----0---2-0-----|
A|----------------|
E|3---------------|

CODA
  F                Fm               C                B7/F#
  1 + 2 + 3 + 4 +  1 + 2 + 3 + 4 +  1 + 2 + 3 + 4 +  1 + 2 + 3 + 4 +
e|1---------------|1---------------|----------------|----------------|
B|1---------------|1---------------|1---------------|--------0-------|
G|2---------------|1---------------|0---------------|2-------2-------|
D|3---------------|3---------------|2---------------|1-------1-------|
A|3---------------|3---------------|3-------2--1--0-|----------------|
E|1---------------|1---------------|----------------|2---------------|


---------------------------------------------------------------------------
CHORDS

          E-A-D-G-B-e
G7/B      x-2-3-0-3-x
G7        3-x-3-0-3-x
Dm/C      x-3-x-2-3-1
G/F       1-x-0-0-0(3)
Am/G      3-x-2-2-1-x
Am/F#     2-x-2-2-1-0  (= F#m7-5)
B7/F      2-x-1-2-0(2)

---------------------------------------------------------------------------


INTRO
| C | % | F | % |
| C | % | F | % |


VERSE
C
 People say I'm crazy
F                   C
     Doing what I'm doing
           C
Well, they give me all kinds of warnings
F                    C
     To save me from ruin


BRIDGE
F               Dm
When I say that I'm okay
           G                G7/B
Well, they look at me kinda strange
F                  Dm
 Surely you're not happy now
       G
You no longer play the game


VERSE
C
 People say I'm lazy
F                 C
     Dreaming my life away
           C
Well, they give me all kinds of advice
F                  C
     Designed to enlighten me


BRIDGE
       F                  Dm
When I tell them that I'm doing fine
         G              G7/B
Watching shadows on the wall
F                   Dm
 Don't you miss the big time, boy?
         | G   |   %   |   %   |   %  |
You're no longer on the ball    [LINK]


CHORUS
F         G
 I'm just sitting here
             C                   Am
Watching the wheels go round and round
F          Am                 Dm    Dm/C
  I really love to watch them roll
G          G/F           Am            Am/G   Am/F#
 No longer riding on the merry-go-ro-ound     [break]
F       Fm7           C
 I just had to let it go


INTERLUDE
| C | % | F | % |
| C | % | F | % |


   C
Ah, people asking questions
F               C
     Lost in confusion
        C
Well, I tell them, there's no problem
F           C
     Only solutions


BRIDGE
           F      
Well, they shake their heads
         Dm            G               G7/B   G7
And they look at me as if I've lost my mind
  F                     Dm
I tell them, there's no hurry
           | G   |   %   |   %   |   %  |
I, I'm just sitting here doing time  [LINK]


CHORUS
F         G
 I'm just sitting here
             C                   Am
Watching the wheels go round and round
F          Am                 Dm    Dm/C
  I really love to watch them roll
G          G/F           Am            Am/G   Am/F#
 No longer riding on the merry-go-ro-ound     [break]


CODA
F       Fm              | C | B7/F# |
 I just had to let it go
F       Fm              | C | B7/F# |
 I just had to let it go
F       Fm                       | C  C7  C
 I just had to ... let it go





 
 
John Lennon - Watching The Wheels Chords :: indexed at Ultimate Guitar.
Watching The Wheels tabs @ 911Tabs

About the artist behind Watching The Wheels Chords:

John Winston Ono Lennon, MBE (born John Winston Lennon; 9 October 1940–8 December 1980) was an English rock musician, singer, songwriter, artist, and peace activist who gained worldwide fame as one of the founding members of The Beatles. As a member of the group, Lennon was one of the lead vocalists and co-wrote the majority of the band's songs with bassist Paul McCartney.

In his solo career, Lennon wrote and recorded songs such as "Give Peace a Chance" and "Imagine". Lennon revealed his rebellious nature and wit on television, in films such as A Hard Day's Night, in books such as In His Own Write, and in press conferences and interviews. He was controversial through his work as a peace activist, artist, and author.

Lennon had two sons: Julian Lennon, with his first wife Cynthia Lennon, and Sean Ono Lennon, with his second wife, avant-garde artist Yoko Ono. After a self-imposed retirement from 1976 to 1980, Lennon reemerged with a comeback album, but was murdered one month later in New York City on 8 December 1980. In 2002, respondents to a BBC poll on the 100 Greatest Britons voted Lennon into eighth place. In 2004, Rolling Stone magazine ranked Lennon number 38 on its list of "The Immortals: The Fifty Greatest Artists of All Time" and ranked The Beatles at number one.

Indexed at Wikipedia.

Show us your talent, perform Watching The Wheels Chords!

Here you can post a video or audio performance. Tell me more ...
Where can we find your performance? Tell me more ...
Your comment:
Please, log in to post your performance.