Artists by letter: A B C D E F G H I J K L M N O P Q R S T U V W X Y Z 0-9

 
Revolution Tab
John Lennon: Revolution (acoustic)
Tabbed by: ARP


!!!!!!!!!!!!Half step down!!!!!!

Play D And G:
       D                     G
|---x---x---x---x-|  |---x---x---x---x-| 
|---x---x---x---x-|  |---x---x---x---x-|
|---x---x---x---x-|  |---x---x---x---x-|
|---7---7---9---7-|  |---x---x---x---x-|
|---5---5---5---5-|  |---5---5---7---5-|
|---x---x---x---x-|  |---3---3---3---3-|
-----------------------------------------------------------------------------------------------
Intro:
-------------------------------------------------------------------------------------------------
      D                                                                                                
|---x---x---x---x-| x2   -------5------------ x1 |---x---x---x---x-| x2   |---x-x--| x4 
|---x---x---x---x-|      ---5h7---5----------    |---x---x---x---x-|      |---x-x--| 
|---x---x---x---x-|      -----------7--------    |---x---x---x---x-|      |---x-x--| 
|---7---7---9---7-|      --------------------    |---7---7---9---7-|      |---2-x--| 
|---5---5---5---5-|      ---------------0--2-    |---5---5---5---5-|      |---0-0--| 
|---x---x---x---x-|      --------------------    |---x---x---x---x-|      |---x-x--| 

--------------------------------------------------------------------------------------------------
    D                                    G
You say you want a revolution, well you know
                             D
We all want to change the world
                                           G
You tell me that it's evolution, well you know
                            A     (slowly add the rest for bar A7)
We all want to change the world

-------------------------------------------------------------------------
Full bar chords.
-----------------------------------------------------------------------
Em                         A
But when you talk about destruction
Em                            C   D   B  (reg.)A                 
Don't you know that you can count me out


:::::Chorus::::::
                           D     G         
Don't you know it's gonna be, alright   

                        D     G         
Don't you know it's gonna be, alright   

                        D     G      /slide   
Don't you know it's gonna be, alright   

|-----------------------|  x2
|-----------------------|
|-----------0----------2|
|-------0h2-------0h2---|
|---0-0--------0--------|
|-----------------------|

|---x---x--|  x4
|---x---x--|
|---x---x--|
|---2---x--|
|---0---0--|
|---x---x--|

 D                                        G
You say you got a real solution, well you know
                           D
We'd all love to see the plan
                                          G
You ask me for a contribution, well you know
                         A      (slowly add the rest for bar A7)
We're all doing what we can

Em                          A
But if you want money for minds that hate
Em                                   C  D   B    \ A
All I can tell you is brother you have to wait


                        D     G         
Don't you know it's gonna be, alright   

                        D     G         
Don't you know it's gonna be, alright   

                        D     G         
Don't you know it's gonna be, alright   



|-----------------------|  x2
|-----------------------|
|-----------0----------2|
|-------0h2-------0h2---|
|---0-0--------0--------|
|-----------------------|

|---x---x--|  x4
|---x---x--|
|---x---x--|
|---2---x--|
|---0---0--|
|---x---x--|


  D                                              G
You say you'll change the constitution, well you know
                           D
We all want to change your head
                                            G
You tell me it's the institution, well you know
                              A        (slowly add the rest for bar A7)
You better free your mind instead

Em                                  A
But if you go carrying pictures of Chairman Mao
Em                                  C   D   B    \ A
You ain't gonna make it with anyone any  how 

                          D      G
Don't you know it's gonna be, alright   X (Whatever)
  

 
 
John Lennon - Revolution Tab :: indexed at Ultimate Guitar.
Revolution tabs @ 911Tabs

About the artist behind Revolution Tab:

John Winston Ono Lennon, MBE (born John Winston Lennon; 9 October 1940–8 December 1980) was an English rock musician, singer, songwriter, artist, and peace activist who gained worldwide fame as one of the founding members of The Beatles. As a member of the group, Lennon was one of the lead vocalists and co-wrote the majority of the band's songs with bassist Paul McCartney.

In his solo career, Lennon wrote and recorded songs such as "Give Peace a Chance" and "Imagine". Lennon revealed his rebellious nature and wit on television, in films such as A Hard Day's Night, in books such as In His Own Write, and in press conferences and interviews. He was controversial through his work as a peace activist, artist, and author.

Lennon had two sons: Julian Lennon, with his first wife Cynthia Lennon, and Sean Ono Lennon, with his second wife, avant-garde artist Yoko Ono. After a self-imposed retirement from 1976 to 1980, Lennon reemerged with a comeback album, but was murdered one month later in New York City on 8 December 1980. In 2002, respondents to a BBC poll on the 100 Greatest Britons voted Lennon into eighth place. In 2004, Rolling Stone magazine ranked Lennon number 38 on its list of "The Immortals: The Fifty Greatest Artists of All Time" and ranked The Beatles at number one.

Indexed at Wikipedia.

Show us your talent, perform Revolution Tab!

Here you can post a video or audio performance. Tell me more ...
Where can we find your performance? Tell me more ...
Your comment:
Please, log in to post your performance.