Artists by letter: A B C D E F G H I J K L M N O P Q R S T U V W X Y Z 0-9

 
You Fuckin Did It Tab
-------------------------------------------------------------------------------
                             YOU FCKN DID IT - Jason Mraz
-------------------------------------------------------------------------------
Tuning:Standard
Key: B minor
Derived from bonus track off of "Love is a Four Letter Word"

The song really consists of just a few parts. I've tabbed out and listed the chords I use that 
seem to fit the track the best.


Intro (just the roots, repeat until chord change):
         Bmin          Gmaj7         F#min              Bmin
e|---------------------------------------------------------------------------|
B|---------------------------------------------------------------------------|
G|---------------------------------------------------------------------------|
D|---------------------------------------------------------------------------|
A|-------------------11-------------10---------------------------------------|
E|-(5-6)-7-----------------------------------------------7-------------------|
the A, A# into the Bmin happens on the repeat into chords.

Verses:
         Bmin        Gmaj7        F#min        Bmin
e|-------7-----------10-----------9------------7-------------|
B|-------7-----------12-----------10-----------7-------------|
G|-------7-----------11-----------9------------7-------------|
D|-------7-----------12-----------12-----------7-------------| repeat ad nauseam
A|-------x-----------10-----------9------------x-------------|
E|-------7-------------------------------------7-------------|

Pre-Chorus:
   Gmaj7        A7       A#dim       Bmin           
e|-9------------12-------12----------14--------------------------------------|
B|-12-----------14-------14----------15--------------------------------------|
G|-11-----------12-------12----------14--------------------------------------|
D|-12-----------14-------14----------16--------------------------------------|x2
A|-10-----------12-------13----------14--------------------------------------|
E|---------------------------------------------------------------------------|

 "So thankful to the gods for making you...."  
     G                                    F#      (he switches to a higher voicing)
e|---3------------------------------------2--------9-------|
B|---3------------------------------------2--------11------|
G|---4------------------------------------3--------11------| into chorus
D|---5------------------------------------4--------11------|
A|---5------------------------------------4--------9-------|
E|---3------------------------------------2----------------|

Chorus:

         Bmin       Gmaj7         F#min        Bmin
e|-------7-----------10-----------9------------7-------------|
B|-------7-----------12-----------10-----------7-------------|
G|-------7-----------11-----------9------------7-------------|
D|-------7-----------12-----------12-----------7-------------|
A|-------x-----------10-----------9------------x-------------|
E|-------7-------------------------------------7-------------|


I'm primarily a jazz guitarist, so I derived a some of these voicings from jazz. Use what you
like most.
This should get you through the song. Send a message if you have questions or corrections.

************************************

| /   slide up
| \   slide down
| h   hammer-on
| p   pull-off
| ~   vibrato
| +   harmonic
| x   Mute note
| b   Bend
| pb  Pre-bend
| br  Bend release
| pbr Pre-bend release
| brb Bend release bend

************************************
 
 
Jason Mraz - You Fuckin Did It Tab :: indexed at Ultimate Guitar.
You Fuckin Did It tabs @ 911Tabs

About the artist behind You Fuckin Did It Tab:

Jason Thomas Mraz (pronounced /'dʒeɪsən ˈɱɹæz/; born June 23, 1977) is an American singer-songwriter, born and raised in Mechanicsville, Virginia, a suburb of Richmond.[1]

Mraz is an eclectic artist with multiple and varied stylistic influences, including pop, rock, folk, jazz, country, and hip hop. He has played with various artists, including The Rolling Stones, Bob Dylan, Dave Matthews Band, James Blunt, Gavin DeGraw, Paula Cole, John Popper, Alanis Morissette, The Ohio Players, Rachael Yamagata, Jewel and Colbie Caillat.[citation needed]

Indexed at Wikipedia.

Show us your talent, perform You Fuckin Did It Tab!

Here you can post a video or audio performance. Tell me more ...
Where can we find your performance? Tell me more ...
Your comment:
Please, log in to post your performance.