Artists by letter: A B C D E F G H I J K L M N O P Q R S T U V W X Y Z 0-9

 
Prettiest Friend Tab
-------------------------------------------------------------------------------
                             Prettiest Friend - Jason Mraz
-------------------------------------------------------------------------------
Tabbed by: norquisd

Chords 


Tuning: Standard
      C                             G
e|---------------------------------------------------------------------------|
B|-------------------1----------------------------0--------------------------|
G|--------0---------------0-------------0-------------0----------------------|
D|------------2---------------2------------0-------------0-------------------|
A|----3----------3----------------------------2------------------------------|
E|----------------------------------3----------------------------------------|
     Am                             Em
e|--------------------0------------------------------------------------------|
B|--------1--------------1------------------------0--------------------------|
G|------------2-------------2------------0------------0----------------------|
D|---------------2--------------------------2------------2-------------------|
A|---0-----------------------------------------2-----------------------------|
E|----------------------------------0----------------------------------------|
    F                               C
e|---------------------------------------------------------------------------|
B|------------------1------------------------------1-------------------------|
G|-------2--------------2---------------0--------------0---------------------|
D|----------3---------------3---------------2--------------2-----------------|
A|-------------3--------------------3----------3-----------------------------|
E|--1------------------------------------------------------------------------|
   G
e|------------------------------0--------------------------------------------|
B|------0------1-------3----3-------3-----1----------------------------------|
G|--------0------0------------------------------0----------------------------|
D|----------0------0---------------------------------------------------------|
A|---------------------------------------------------------------------------|
E|-3-------------------------------------------------------------------------|


C                          G
This is what I look like today 
         Am                        Em
And I’m trying not to pull out my hair 
      F                               C                             G
I’m trying hard to grow it but I’m far too shy to show it back there 

e|--------------------------------------------------|
B|---------0----1----3------------------------------|
G|---------0----0----0------------------------------|
D|---------0----0----0------------------------------|
A|--------------------------------------------------|
E|----3------3--------------------------------------|
        C                         G
That is probably why I like wearing hats 
           Am                           Em
There’s no denying I’m deferring the facts 
F                             C
Avoiding confrontation lacks tact in a situation 
G                       
Behind every line is a lesson yet to learn 

e|--------------------------------------------------|
B|---------0----1----3------------------------------|
G|---------0----0----0------------------------------|
D|---------0----0----0------------------------------|
A|--------------------------------------------------|
E|----3------3--------------------------------------|

Dm          G           C                          G/B  A7 
But if you ask me, the feeling that I’m feeling is overwhelming 

        G/B              A7
e|------0----------------0-----------------------------------------------------|
B|------3----------------2-----------------------------------------------------|
G|------0----------------0-----------------------------------------------------|
D|------0----------------2-----------------------------------------------------|
A|------2----------------0-----------------------------------------------------|
E|------x----------------x-----------------------------------------------------|
       Over          Whelming


    Dm              G                     C
And oh, it goes to show, there's so much to know 


e|---------------------------------------------------------------------------|
B|--------1-------1--------1-------------------------------------------------|
G|--------2-------2--------0-------------------------------------------------|
D|--------3-------3--------2-------------------------------------------------|
A|----3-------3------------3-------------------------------------------------|
E|---------------------------------------------------------------------------|

  C                           G
I wrote this for my prettiest friend 
          Am                       Em
But while trying not to prove that I care
F                       C                       G
Trying not to make all my moves in one motion and scare her away 

e|--------------------------------------------------|
B|---------0----1----3------------------------------|
G|---------0----0----0------------------------------|
D|---------0----0----0------------------------------|
A|--------------------------------------------------|
E|----3------3--------------------------------------|

     C                            G
Well she can't see she's making me crazy now 
  Am                            Em
I don't believe she knows she's amazing how 
           F                    C
She has me holding my breath, so I’d never guess 
           G                    
That I’m a none such unsuitable, suited for her 
e|--------------------------------------------------|
B|---------0----1----3------------------------------|
G|---------0----0----0------------------------------|
D|---------0----0----0------------------------------|
A|---------------------------0--2--3/5--------------|
E|----3------3------------3-------------------------|



Dm          G           C                          G/B  A7
And if you ask me, the feeling that I’m feeling is complimentary 
    Dm             G         C                     G/B       A7
And oh, it goes to show, the moral of the story is boy loves girl 
        Dm                           G                  C
And so on but, the way that it unfolds is yet to be told 

e|---------------------------------------------------------------------------|
B|--------1-------1--------1-------------------------------------------------|
G|--------2-------2--------0-------------------------------------------------|
D|--------3-------3--------2-------------------------------------------------|
A|----3-------3------------3-------------------------------------------------|
E|---------------------------------------------------------------------------|



            Am          Em
I know that I should be brave,


e|---------------------------------------------------------------|
B|----------------3----------------------------------------------|
G|--------------0----0-------------------------------------------|
D|------------4---------4----------------------------------------|
A|----------2-------------2--------------------------------------|
E|--------0------------------------------------------------------|
       Brave

     F                         C
even pretty can be seen by the blind 
           Am         Em          
I know that I cannot wait,

e|---------------------------------------------------------------|
B|----------------3----------------------------------------------|
G|--------------0----0-------------------------------------------|
D|------------4---------4----------------------------------------|
A|----------2-------------2--------------------------------------|
E|--------0------------------------------------------------------|
       Wait

           F                           G
 until the day we finally learn how to find each other,
           G
Redefining open minds
e|---------------------------------|
B|---------------------------------|
G|---------------------------------|
D|---------------------------------|
A|---------0--2--3/5---------------|
E|------3--------------------------|

Dm          G           C                          G/B   A7
And if you ask me, the feeling that I’m feeling is overjoyed 
           Dm                G
And it's golden; it goes to show then,
     C                             G/B   A7
The ending of this song should be left alone 
     Dm                         G                 C
And so on 'cause, the way it unfolds is yet to be told

e|---------------------------------------------------------------------------|
B|--------1-------1--------1-------------------------------------------------|
G|--------2-------2--------0-------------------------------------------------|
D|--------3-------3--------2-------------------------------------------------|
A|----3-------3------------3-------------------------------------------------|
E|---------------------------------------------------------------------------|

Repeat until end


************************************

| /   slide up
| \   slide down
| h   hammer-on
| p   pull-off
| ~   vibrato
| +   harmonic
| x   Mute note
| b   Bend
| pb  Pre-bend
| br  Bend release
| pbr Pre-bend release
| brb Bend release bend

************************************
 
 
Jason Mraz - Prettiest Friend Tab :: indexed at Ultimate Guitar.
Prettiest Friend tabs @ 911Tabs

About the artist behind Prettiest Friend Tab:

Jason Thomas Mraz (pronounced /'dʒeɪsən ˈɱɹæz/; born June 23, 1977) is an American singer-songwriter, born and raised in Mechanicsville, Virginia, a suburb of Richmond.[1]

Mraz is an eclectic artist with multiple and varied stylistic influences, including pop, rock, folk, jazz, country, and hip hop. He has played with various artists, including The Rolling Stones, Bob Dylan, Dave Matthews Band, James Blunt, Gavin DeGraw, Paula Cole, John Popper, Alanis Morissette, The Ohio Players, Rachael Yamagata, Jewel and Colbie Caillat.[citation needed]

Indexed at Wikipedia.

Show us your talent, perform Prettiest Friend Tab!

Here you can post a video or audio performance. Tell me more ...
Where can we find your performance? Tell me more ...
Your comment:
Please, log in to post your performance.