Artists by letter: A B C D E F G H I J K L M N O P Q R S T U V W X Y Z 0-9

 
I Never Knew You Tab
Jason Mraz  
Like I Never Knew You Tab

Intro (2X) [Starts at 3:07 on the album version]

E|-------------------|-------------------|
B|------8-----8------|------7-----7------|
G|------7-----7------|------7-----7------|
D|----------------5--|-------------------|
A|-/7-----------7----|-/9-----------9\---|
E|--------7----------|--------7----------|

E|-------------------|-------------------|
B|------5-----5------|------5-----5------|
G|------4-----4------|------4-----4------|
D|----------------5--|----------------0--|
A|--3-----------3----|--3-----------3----|
E|--------3----------|--------3----------|

Verse (2X)

Part I (3X)
E|-------------------|-------------------|
B|------8-----8------|------7-----7------|
G|------7-----7------|------7-----7------|
D|----------------5--|----------------7--|
A|-/7-----------7----|-/9-----------9----|
E|--------7----------|--------7----------|

E|-------------------|-------------------|
B|------5-----5------|------5-----5------|
G|------4-----4------|------4-----4------|
D|----------------5--|----------------0--|
A|--3-----------3----|--3-----------3----|
E|--------3----------|--------3----------|

Part II 
E|-------------------|-------------------|--------|
B|------8-----8------|------7-----7------|--5-----|
G|------7-----7------|------7-----7------|--4-----|
D|----------------5--|----------------7--|--5-----|
A|-/7-----------7----|-/9-----------9----|--3-----|
E|--------7----------|--------7----------|--------|

Pre-chorus

Part I (2X)
E|-------------------|-------------------|-------------------|--------|
B|------8-----8------|------7-----7------|------5-----5------|--5-----|
G|------7-----7------|------7-----7------|------4-----4------|--4-----|
D|----------------5--|----------------7--|----------------5--|--5-----|
A|-/7-----------7----|-/9-----------9----|--3-----------3----|--3-----|
E|--------7----------|--------7----------|--------3----------|--------|

Part II
E|-------------------|-------------------|-------------------|--------|
B|------3-----3---3--|------1-----1---1--|------0-----0---0--|--0-----|
G|------4-----4---4--|------2-----2---2--|------1-----1---1--|--1-----|
D|------5-----5---5--|------3-----3---3--|------2-----2---2--|--2-----|
A|----------5--------|----------3--------|----------2--------|--2-----|
E|--3-----3-----3----|--1-----1-----1----|--0-----0-----0----|--0-----|

E|-------------------|-------------------|
B|------1-----1---1--|------1-----1---1--|
G|------2-----2---2--|------2-----2---2--|
D|------2---2--------|------2---2--------|
A|--0-----0-----0----|-------------------|
E|-------------------|--3-----3-----3----|

E|-------------------|-------------------|
B|------3-----3---3--|--3-------X-X---X--|
G|------2-----2---2--|--2-------X-X---X--|
D|------0---0--------|--0-------X-X---X--|
A|-------------------|-------------------|
E|--2-----2-----2----|-------------------|

Chorus 1

E|----------0-----0--|----------2-----2--|
B|----------0-----0--|----------3-----3--|
G|----------0-----0--|----------4-----4--|
D|----------2--------|----------4--------|
A|----------2--------|--2---2---2--------|
E|--0---0---0--------|-------------------|
 PM .   .               .   .

E|----------0-----0--|--0--0--0----0--0--|
B|----------1-----1--|--1--1--1----1--1--|
G|----------0-----0--|--0--0--0----0--0--|
D|----------2--------|--2--2-------2--2--|
A|--3---3---3--------|-----3----------3--|
E|-------------------|-------------------|
 PM .   .

E|----------0-----0--|----------2-----X--|--0-----|
B|----------0-----0--|----------3-----X--|--1-----|
G|----------0-----0--|----------4-----X--|--0-----|
D|----------2--------|----------4--------|--2-----|
A|----------2--------|--2---2---2--------|--3-----|
E|--0---0---0--------|-------------------|--------|
 PM .   .               .   .

Intro (2X)

Verse

Pre-chorus

Chorus 2

E|----------0-----0--|----------2-----2--|
B|----------0-----0--|----------3-----3--|
G|----------0-----0--|----------4-----4--|
D|----------2--------|----------4--------|
A|----------2--------|--2---2---2--------|
E|--0---0---0--------|-------------------|
 PM .   .               .   .

E|----------0-----0--|--0--0--0----0--0--|
B|----------1-----1--|--1--1--1----1--1--|
G|----------0-----0--|--0--0--0----0--0--|
D|----------2--------|--2--2-------2--2--|
A|--3---3---3--------|-----3----------3--|
E|-------------------|-------------------|
 PM .   .

E|----------0-----0--|--2-----|--0-----|
B|----------0-----0--|--3-----|--1-----|
G|----------0-----0--|--4-----|--0-----|
D|----------2--------|--4-----|--2-----|
A|----------2--------|--2-----|--3-----|
E|--0---0---0--------|--------|--------|
 PM .   .

Interlude

Part 1 (Variation of this riff played before Intro on album version)
E|-------------------|-------------------|
B|-------------------|-------------------|
G|------4-----4------|----4-------4---4--|
D|------2-----2------|----4-------4---4--|
A|--3-------3-----3--|--------3-----3----|
E|-------------------|-------------------|

E|-------------------|-------------------|
B|------5-----5------|----5-------5---5--|
G|------4-----4------|----4-------4---4--|
D|------5-----5------|----5-------5---5--|
A|--3-------3-----3--|--------3-----3----|
E|-------------------|-------------------|

E|-------------------|-------------------|
B|-------------------|-------------------|
G|------7-----7------|----7-------7---7--|
D|------7-----7------|----7-------7---7--|
A|-------------------|-------------------|
E|--8-------8-----8--|--------8-----8----|

E|-------------------|-------------------|
B|-------------------|-------------------|
G|------9-----9------|----9-------9---9--|
D|------9-----9------|----9-------9---9--|
A|-------------------|-------------------|
E|--8-------8-----8--|--------8----------|

Part II (6X)
E|--------|--------|--------|
B|--8-----|--7-----|--8-----|
G|--7-----|--7-----|--7-----|
D|--5-----|--7-----|--7-----|
A|--7-----|--X-----|--X-----|
E|--------|--7-----|--8-----|

Part III
E|--3-----|--1-----|--0-----|--------|--0-----|--------|--------|--------|
B|--3-----|--1-----|--0-----|--------|--1-----|--1-----|--3-----|--------|
G|--4-----|--2-----|--1-----|--------|--2-----|--2-----|--2-----|--------|
D|--5-----|--3-----|--2-----|--------|--2-----|--2-----|--0-----|--------|
A|--5-----|--3-----|--2-----|--------|--0-----|--X-----|--X-----|--------|
E|--3-----|--1-----|--0-----|--------|--------|--3-----|--2-----|--------|

Part IV (2X)
E|--0-----|--2-----|--0-----|
B|--0-----|--3-----|--1-----|
G|--0-----|--4-----|--0-----|
D|--2-----|--4-----|--2-----|
A|--2-----|--2-----|--3-----|
E|--0-----|--------|--------|

Intro (2X)

Pre-Chorus

Extro

Part I (5X)
E|----------0-----0--|----------2-----2--|
B|----------0-----0--|----------3-----3--|
G|----------0-----0--|----------4-----4--|
D|----------2--------|----------4--------|
A|----------2--------|--2---2---2--------|
E|--0---0---0--------|-------------------|
 PM .   .               .   .

E|----------0-----0--|--0--0--0----0--0--|
B|----------1-----1--|--1--1--1----1--1--|
G|----------0-----0--|--0--0--0----0--0--|
D|----------2--------|--2--2-------2--2--|
A|--3---3---3--------|-----3----------3--|
E|-------------------|-------------------|
 PM .   .

Part II
E|--0-----|--2-----|--0-----|
B|--0-----|--3-----|--1-----|
G|--0-----|--4-----|--0-----|
D|--2-----|--4-----|--2-----|
A|--2-----|--2-----|--3-----|
E|--0-----|--------|--------|

 
 
Jason Mraz - I Never Knew You Tab :: indexed at Ultimate Guitar.
I Never Knew You tabs @ 911Tabs

About the artist behind I Never Knew You Tab:

Jason Thomas Mraz (pronounced /'dʒeɪsən ˈɱɹæz/; born June 23, 1977) is an American singer-songwriter, born and raised in Mechanicsville, Virginia, a suburb of Richmond.[1]

Mraz is an eclectic artist with multiple and varied stylistic influences, including pop, rock, folk, jazz, country, and hip hop. He has played with various artists, including The Rolling Stones, Bob Dylan, Dave Matthews Band, James Blunt, Gavin DeGraw, Paula Cole, John Popper, Alanis Morissette, The Ohio Players, Rachael Yamagata, Jewel and Colbie Caillat.[citation needed]

Indexed at Wikipedia.

Show us your talent, perform I Never Knew You Tab!

Here you can post a video or audio performance. Tell me more ...
Where can we find your performance? Tell me more ...
Your comment:
Please, log in to post your performance.