Artists by letter: A B C D E F G H I J K L M N O P Q R S T U V W X Y Z 0-9

Hello You Beautiful Thing Tab (ver 2) - Jason Mraz


 
Hello You Beautiful Thing Tab
Hi guys,

Here's my take on this song. I saw that there's a version of this tab up which has the capo on 5 as well, just 
thought I'd add some small changes. I took this from his performance at Jason Mraz Organics' Avocado Ranch. 
Sounds pretty much exactly like the studio version, except that he seems to let the chords ring out more in the 
studio version. 
Think it should be pretty close!

Capo on 5

To make it a bit more percussive I personally play a small slap along with the drum rythm. Seems to help me out 
with the overall feel of the song too.


Intro/verse/chorus

e|---------------------------------------------------------------------------|
B|---------------------------------------------------------------------------|
G|--------------------0------------------------------------------------------|
D|--------2-0----------0-----------2-----2-----2-0---------------------------|
A|----2-----------3-----------3------3-----3---------------------------------|
E|--3---3-------5---5-------1---1------1-----1-------------------------------|

This is pretty much repeated throughout the song. The slap would be on the first open D, just to give you an
indication. You can play a little melody at the end of this (on the F) like this:

e|---------------------------------------------------------------------------|
B|---------------------------------------------------------------------------|
G|-------------------0-------------------------------------------------------|
D|--------2-0----------0-----------2-----2-----2\0-----0---------------------|
A|----2-----------3-----------3------3-----3-------3-------------------------|
E|--3---3-------5---5-------1---1------1-----1-------1-----------------------|

Bridge: 

e|---------------------------------------------------------------------------|
B|---------------------------------------------------------------------------|
G|------0---0-----------0---0----------0---0---0-----0---0-------------------|
D|--------4---4-----------4---4--2---2---2---2-----2---2---2-----------------|
A|----2---------2-----2------------3-------------3---------------------------|
E|--0---------------0--------------------------------------------------------|

e|---------------------------------------------------------------------------|
B|---------------------------------------------------------------------------|
G|------0---0-----------0---0--------0---0---0-------------------------------|
D|--------4---4-----------4---4--------2---2---------------------------------|
A|----2---------2-----2------------3-----------------------------------------|
E|--0---------------0------------1-----------1~~~----------------------------|

Back to the verse!

Have fun!


************************************

| /   slide up
| \   slide down
| h   hammer-on
| p   pull-off
| ~   vibrato
| +   harmonic
| x   Mute note
| b   Bend
| pb  Pre-bend
| br  Bend release
| pbr Pre-bend release
| brb Bend release bend

************************************
 
 
Jason Mraz - Hello You Beautiful Thing Tab :: indexed at Ultimate Guitar.
Hello You Beautiful Thing tabs @ 911Tabs

About the artist behind Hello You Beautiful Thing Tab:

Jason Thomas Mraz (pronounced /'dʒeɪsən ˈɱɹæz/; born June 23, 1977) is an American singer-songwriter, born and raised in Mechanicsville, Virginia, a suburb of Richmond.[1]

Mraz is an eclectic artist with multiple and varied stylistic influences, including pop, rock, folk, jazz, country, and hip hop. He has played with various artists, including The Rolling Stones, Bob Dylan, Dave Matthews Band, James Blunt, Gavin DeGraw, Paula Cole, John Popper, Alanis Morissette, The Ohio Players, Rachael Yamagata, Jewel and Colbie Caillat.[citation needed]

Indexed at Wikipedia.

Show us your talent, perform Hello You Beautiful Thing Tab!

Here you can post a video or audio performance. Tell me more ...
Where can we find your performance? Tell me more ...
Your comment:
Please, log in to post your performance.