Artists by letter: A B C D E F G H I J K L M N O P Q R S T U V W X Y Z 0-9

 
Double Trouble Tab
Lynyrd Skynyrd
 "Double Trouble"
 GIMME BACK MY BULLETS
 Tabbed by Dave
 Ripped By Olof

A more simple yet more "lynyrd-like" tab here, ripped from Daves original tab. played
with a nice distorsion and lots of palm muting. In the original recording theres a lot
of small quick hammer-ons that fill out the gaps in this fast&lovely blues walk. Of
course its designed for at least two guitarist but that's beyond the scope of this
simple tab.

Enjoy!

LICK 1:
E-----------------------------------------------------------|
B----------(5)-~--------------------------------------------|
G-----------5-----------------------------------------------|
D-----7--5----7---5------7--5---7---(5h7h5h7h5)-------------|
A-0------------------0--------------------------------------|
E-----------------------------------------------------------|

LICK 2:
E-----------------------------------------------------------|
B------------------6----------------------------------------|
G------------7--5-----7--5------7--57b--5------------------|
D-------------------------------------------7---------------|
A(0-3-4)-5-----------------5-------------------------------|
E-----------------------------------------------------------|

LICK 3:
E-----------------------------------------------------------|
B--------8---------------6----------------------------------|
G-----9----9--9--------7---77--5----------------------------|
D----------------------------------7------------------------|
A--7------------6--5-------------------5--------------------|
E-----------------------------------------------------------|

Lick 1
Eleven times I been busted, eleven times I been to jail
Lick 1
Some of the times I been there nobody would go my bail
Lick 2                                              Lick 1
Well it seems to me, lord that this ol' boy just don't fit
Lick 3
Well I can jump in a rosebush and come out smelling like sh...


Lick 1
Those misters dressed in blue never done so right by me
Lick 1
Some of the times I was innocent but the judge said guilty
Lick 2					Lick1
I'm not one to complain now son I tell you true
Lick 3                                                   Lick 1
When the black cat cross your trail, lord, it comes in misery times two

Lick 2				Lick 1
Double trouble--that's what my friends all call me
Lick 3
I said, double trouble

T-r-o-u-b-l-e

Lick 1
Well I was born down in the gutter with a temper as hot as fire
Lick 1
Spent ninety days on a peat farm just doin' the county's time
Lick 2
Well now, even mama said son you're bad news
Lick 3
And it won't be too long before someone puts one through you

(chorus)

(chorus)

 
 
Lynyrd Skynyrd - Double Trouble Tab :: indexed at Ultimate Guitar.
Double Trouble tabs @ 911Tabs

About the artist behind Double Trouble Tab:

Lynyrd Skynyrd (pronounced /ˌlɛnɚdˈskɪnɝd/,Leh-Nerd Skin-Nerd) is an American Southern rock band. The band became prominent in the Southern United States in 1973, and rose to worldwide recognition before several members, including lead vocalist and primary songwriter Ronnie Van Zant, were killed in a plane crash in 1977 near McComb, Mississippi. A tribute band was formed in 1987 for a reunion tour with Johnny Van Zant, Ronnie's younger brother, at the helm, and continues to record music today.

The band was inducted into the Rock and Roll Hall of Fame on March 13, 2006, with members Gary Rossington and Billy Powell, former members Ed King, Bob Burns, and Artimus Pyle, and deceased members Ronnie Van Zant, Allen Collins, Steve Gaines, and Leon Wilkeson.

Indexed at Wikipedia.

Show us your talent, perform Double Trouble Tab!

Here you can post a video or audio performance. Tell me more ...
Where can we find your performance? Tell me more ...
Your comment:
Please, log in to post your performance.