Artists by letter: A B C D E F G H I J K L M N O P Q R S T U V W X Y Z 0-9

 
The Freedom We Know Tab
Intro:
e|------------|
b|------------|
g|-12--10--9--|
d|------------| (x3)
a|-10--8---7--|
e|------------|

Pre-Coro:
e|------0-------0-------0------2-----|
b|---3-3-----3-3-----3-3-----3--3-3--|
g|--0-0-----0-0-----0-0-----0-0--0---|
d|-4-------2-------------------------|
a|-----------------3-------3---------|
e|-----------------------------------|
D . .Em . .C . .C

e|------0-------0--------------------|
b|---3-3-----3-3-----1--1-----1--1---|
g|--0-0-----0-0-----0--0-0------0-0--|
d|-4-------2-------3--3------2-2-----|
a|--------------------------3--------|
e|-----------------------------------|
D . Em . .F . .C

Coro:
e|--------------------|--------------------|
b|--------------------|--------------------|
g|-0-14-16-0-14-16-04-|16-0-14-16-0-14-16-0|
d|--------------------|--------------------|
a|--------------------|--------------------|
e|--------------------|--------------------|
        G      D        Em
e|----------------------|--------------------|
b|----------------------|--------------------|
g|-19-21-0-19-21-0-14-16|0-14-16-0-14-16-0-14|
d|----------------------|--------------------|
a|----------------------|--------------------|
e|----------------------|--------------------|
   F                      C

 
 
Hillsong United - The Freedom We Know Tab :: indexed at Ultimate Guitar.
The Freedom We Know tabs @ 911Tabs

About the artist behind The Freedom We Know Tab:

Hillsong United is the youth ministry of Hillsong Church. The youth ministry is combined of four different ages groups that meet separately but have "United" nights when they come together. The different age groups are; Fuel for years 7 to 9 at school, Wildlife for years 10 to 12 at school, Powerhouse for ages 18 to 25 and Frontline for ages 25 to 35.

Indexed at Wikipedia.

Show us your talent, perform The Freedom We Know Tab!

Here you can post a video or audio performance. Tell me more ...
Where can we find your performance? Tell me more ...
Your comment:
Please, log in to post your performance.