Artists by letter: A B C D E F G H I J K L M N O P Q R S T U V W X Y Z 0-9

 
Soy Libre Tab
Hola amigos en Cristo aqui les dejo otra para que se diviertan

V= vibrato  b= bend

Escala Re mayor

INTRO

Empieza guitarra I
    F#m                                 D
e|--------------------------------------------------------------------------|
B|--------------------------------------------------------------------------|
G|--------------------------------------------------------------------------|
D|----------------------------------------4---4-6--x-xxx----4---4-6v--------|
A|--------------------------------------5---5------x-xxx--5---5-------------|
E|--2-2-2-2-2-2-2-2-2-2-2-2-2-2-2-2-----------------------------------------|
(x2)

VERSO I:
F#m                                        D
No sé si puedes hoy creer lo que vas a escuchar
G|--------------------------------------------------------------------------|
D|---------------------------------------------4---4-6--x-xxx----4---4-6v---|
A|-------------------------------------------5---5------x-xxx--5---5--------|
E|-2-2-2-2-2-2-2-2-2-2-2-2-2-2-2-2------------------------------------------|

F#m                                        D
Que hay un amor que te da vida y nunca fallara
G|--------------------------------------------------------------------------|
D|---------------------------------------------4---4-6--x-xxx----4---4-6v---|
A|-------------------------------------------5---5------x-xxx--5---5--------|
E|-2-2-2-2-2-2-2-2-2-2-2-2-2-2-2-2------------------------------------------|

F#m                                  D
Yo soy libre, yo soy libre voy a bailar en su amor
G|--------------------------------------------------------------------------|
D|-------------------------------------4-4--6-6--4-4--6-6-------------------|
A|-------------------------------------5-5--5-5--5-5--5-5-------------------|
E|-2-2-2b-2b----2-2-2b-2b---2-2-2-------------------------------------------|

F#m                                  D
Yo soy libre, yo soy libre voy a bailar en su amor
G|--------------------------------------------------------------------------|
D|-------------------------------------4-4--6-6--4-4--6-6-------------------|
A|-------------------------------------5-5--5-5--5-5--5-5-------------------|
E|-2-2-2b-2b----2-2-2b-2b---2-2-2-------------------------------------------|

VERSO II:
Entra Guitarra II y Guitarra I va haciendo lo mismo del verso anterior

Guitarra II
 F#m                                      D
Quien lo diría que Dios a Jesús por mi envió
e|--------------------------------------------------------------------------|
B|-10-10-10-10-10-10-10??-9--9--9--9--9--9??-----7-7-7-7-7-x-xxx-7-7-7-7-7--|
G|-11-11-11-11-11-11-11??-11-11-11-11-11-11??----7-7-7-7-7-x-xxx-7-7-7-7-7--|
D|-11-11-11-11-11-11-11??-11-11-11-11-11-11??----7-7-7-7-7-x-xxx-7-7-7-7-7--|
A|--------------------------------------------------------------------------|

F#m                                       D
Dando su vida en la cruz para mostrar su amor
e|--------------------------------------------------------------------------|
B|-10-10-10-10-10-10-10??-9--9--9--9--9--9??-----7-7-7-7-7-x-xxx-7-7-7-7-7--|
G|-11-11-11-11-11-11-11??-11-11-11-11-11-11??----7-7-7-7-7-x-xxx-7-7-7-7-7--|
D|-11-11-11-11-11-11-11??-11-11-11-11-11-11??----7-7-7-7-7-x-xxx-7-7-7-7-7--|
A|--------------------------------------------------------------------------|

F#m                                  D
Yo soy libre, yo soy libre voy a bailar en su amor
e|--------------------------------------------------------------------------|
B|-10-10-10-10-10-10??-9--9--9--9--9??-----7-7--9-9--7-7--9-9---------------|
G|-11-11-11-11-11-11??-11-11-11-11-11??----7-7--7-7--7-7--7-7---------------|
D|-11-11-11-11-11-11??-11-11-11-11-11??----7-7--7-7--7-7--7-7---------------|
A|--------------------------------------------------------------------------|

F#m                                 D                      E
Yo soy libre, yo soy libre voy a bailar en su amor, su amor es eterno
e|--------------------------------------------------------------------------|
B|-10-10-10-10-10-10??-9--9--9--9--9??-----7--7--7--7--------9-9-9-9-9-9-9--|
G|-11-11-11-11-11-11??-11-11-11-11-11??----7--7--7--7--------9-9-9-9-9-9-9--|
D|-11-11-11-11-11-11??-11-11-11-11-11??----7--7--7--7--------9-9-9-9-9-9-9--|
A|--------------------------------------------------------------------------|

CORO
Guitarra I 5tas u 8tavas
    A        D       F#m
e|-----| e|-----| e|-----|
B|-----| B|-----| B|-----|
G|-----| G|--7--| G|-----|
D|--7--| D|--7--| D|--4--|
A|--7--| A|--5--| A|--4--|
E|--5--| E|-----| E|--2--|

Guitarra II
   A                 D                 F#m
  En ti esta la verdad no lo puedo negar
e|------|        e|------|           e|------|
B|--14--|        B|--15--|           B|--14--|
G|--14--|        G|--14--|           G|--14--|
D|--14--|        D|--12--|           D|--14--|
A|------|        A|------|           A|------|
E|------|        E|------|           E|------|
                      D
  Dios por siempre yo voy a bailar, voy a bailar te alabo
e|------|          e|------|
B|--14--|          B|--15--|
G|--14--|          G|--14--|
D|--14--|          D|--12--|
A|------|          A|------|
E|------|          E|------|

   A                 D                   F#m
   Permanezco en tu luz vida eterna eres Tu
e|------|        e|------|           e|------|
B|--14--|        B|--15--|           B|--14--|
G|--14--|        G|--14--|           G|--14--|
D|--14--|        D|--12--|           D|--14--|
A|------|        A|------|           A|------|
E|------|        E|------|           E|------|

                    D
  En todo tiempo yo voy a bailar voy a bailar te alabo.
e|------|        e|------|
B|--14--|        B|--15--|
G|--14--|        G|--14--|
D|--14--|        D|--12--|
A|------|        A|------|
E|------|        E|------|

   F#m                                 D
e|--------------------------------------------------------------------------|
B|--------------------------------------------------------------------------|
G|--------------------------------------------------------------------------|
D|----------------------------------------4---4-6--x-xxx----4---4-6v--------|
A|--------------------------------------5---5------x-xxx--5---5-------------|
E|--2-2-2-2-2-2-2-2-2-2-2-2-2-2-2-2-----------------------------------------|

VERSO III
F#m                                    D
Ahora es el tiempo de tomar nuestra libertad
F#m                                      D
Para tu gloria nuestras vidas vamos a entregar
F#m                                  D
Yo soy libre, yo soy libre voy a bailar en su amor
F#m                                  D                 E
Yo soy libre, yo soy libre voy a bailar en su amo su amor es eterno

CORO
A                 D                 F#m
En ti esta la verdad no lo puedo negar
                     D
Dios por siempre yo voy a bailar, voy a bailar te alabo
A                 D                    F#m
Permanezco en tu luz vida eterna eres Tu
                   D
En todo tiempo yo voy a bailar voy a bailar te alabo.


Después del coro viene esto; min 02:16
Guitarra I                    Guitarra II
   E      F#m      D         E      F#m      D
e|-----| e|-----| e|-----|   e|-----| e|------| e|-----|
B|-----| B|-----| B|-----|   B|--9--| B|--10--| B|--7--|
G|--9--| G|-----| G|--7--|   G|--9--| G|--11--| G|--7--|
D|--9--| D|--4--| D|--7--|   D|--9--| D|--11--| D|--7--|
A|--7--| A|--4--| A|--5--|   A|-----| A|------| A|-----|
E|-----| E|--2--| E|-----|   E|-----| E|------| E|-----|

       E     F#m       D
Con todo mi ser yo te seguiré, seguiré
    E    F#m       D
Tu voluntad yo te seguiré, seguiré
      E       F#m
Pues tu palabra es verdad
     E      F#m      D
Tu amor me da libertad voy a bailar


PUENTE
Guitarra II
   F#m
e|-9-xx-9-xx-9-xx-9-xx-9-xx-9-xx-9-xx-9---|
B|-10xx-10xx-10xx-10xx-10xx-10xx-10xx-10--|
G|----------------------------------------|
   Bm
e|-10xx-10xx-10xx-10xx-10xx-10xx-10xx-10--|
B|-10xx-10xx-10xx-10xx-10xx-10xx-10xx-10--|
G|----------------------------------------|


   F#m
e|-9-xx-9-xx-9-xx-9-xx-9-xx-9-xx-9-xx-9---|
B|-10xx-10xx-10xx-9-xx-10xx-10xx-10xx-9---|
G|----------------------------------------|
   Bm
e|-10xx-10xx-10xx-10xx-10xx-10xx-10xx-10--|
B|-10xx-10xx-10xx-10xx-10xx-10xx-10xx-10--|
G|----------------------------------------|

F#m                                  Bm7
Yo soy libre, yo soy libre voy a bailar yo soy libre
F#m                                  Bm7
Yo soy libre, yo soy libre voy a bailar yo soy libre

F#m    (Guitarra I riff)             Bm7
Yo soy libre, yo soy libre voy a bailar yo soy libre

F#m                                  D
Yo soy libre, yo soy libre voy a bailar en su amor, su amor es eterno

(Guitarra I riff)
e|-17-17-17-17-17-17-17-17-16-16-16-16-16-16-16-16--------------------------|
B|-------------------------------------------------12-12-12-12-14-14-14-14--|

e|---------------------------|
B|-15-15-15-15-17-17-17-17---| (x2)

CORO
Final
Guitarra I
   F#m
E|-2-2-2-2-2-2-2-2-2-2-2-2-2-2-2-2--------|

Bueno eso es todo que lo disfruten
y ya saben, la gloria para Cristo, los bendigo
saludos desde la iglesia "Casa del Rey" en Barranquilla
[email protected]
 
 
Hillsong United - Soy Libre Tab :: indexed at Ultimate Guitar.
Soy Libre tabs @ 911Tabs

About the artist behind Soy Libre Tab:

Hillsong United is the youth ministry of Hillsong Church. The youth ministry is combined of four different ages groups that meet separately but have "United" nights when they come together. The different age groups are; Fuel for years 7 to 9 at school, Wildlife for years 10 to 12 at school, Powerhouse for ages 18 to 25 and Frontline for ages 25 to 35.

Indexed at Wikipedia.

Show us your talent, perform Soy Libre Tab!

Here you can post a video or audio performance. Tell me more ...
Where can we find your performance? Tell me more ...
Your comment:
Please, log in to post your performance.