Artists by letter: A B C D E F G H I J K L M N O P Q R S T U V W X Y Z 0-9

Oceans Where Feet May Fail Tab (ver 5) - Hillsong United


 
Oceans Where Feet May Fail Tab
Song: Oceans (Where Feet May Fail)
Artist: Hillsong United
Album: Zion

Key of E  (Original key is D)  [To play in original key, remove capo, and lower 
everything by two notes)

Capo 2  (Numbering NOT relevant to capo)

Lead Chorus:

E|--------9--------9----------16----------16---------11---------11---------11---------12--|
B|----------------------------------------------------------------------------------------|
G|-----9--------9---------16----------16---------11---------11---------11---------11------|
D|--7--------7--------14----------14----------9----------9----------9----------9----------|
A|----------------------------------------------------------------------------------------|
E|----------------------------------------------------------------------------------------|

E|----------9--------9--------9---------11--|
B|------------------------------------------|
G|-------9--------9--------9--------11------|
D|----7--------7--------7--------9----------|
A|------------------------------------------|
E|------------------------------------------|

Lead Intro:

E|--------0-----|-----------0-----------|-----------0-----|-----------0-----------|
B|--9--------9--|--9--9--------9-----9--|--9--9--------9--|--9--9--------9-----9--|
G|-----9--------|--------9--------9-----|--------9--------|--------9--------9-----|
D|--------------|-----------------------|-----------------|-----------------------|
A|--------------|-----------------------|-----------------|-----------------------|
E|--------------|-----------------------|-----------------|-----------------------|

E|--------0-----|-----------0-----------|----------0------|--------------0------|
B|--7--------7--|--7--7--------7-----7--|--10---------10--|--10--10---------10--|
G|-----4--------|--------4--------4-----|------11---------|----------11---------|
D|--------------|-----------------------|-----------------|---------------------|
A|--------------|-----------------------|-----------------|---------------------|
E|--------------|-----------------------|-----------------|---------------------|

Lead Verse 2:

E|--------------------|----------------------|------------------------|------------------------|
B|--------------------|----------------------|------------------------|------------------------|
G|--------9--------9--|--------9---------11--|---------13---------13--|---------13---------14--|
D|-----0--------0-----|-----0---------0------|------0----------0------|------0----------0------|
A|--------------------|----------------------|------------------------|------------------------|
E|--9--------9--------|--9--------11---------|--12---------12---------|--12---------12---------|

E|--------------------|--------------------|--------------------|--------------------|
B|--------------------|--------------------|--------------------|--------------------|
G|--------8--------8--|--------8--------9--|--------6--------6--|--------6--------6--|
D|-----0--------0-----|-----0--------0-----|-----0--------0-----|-----0--------0-----|
A|--------------------|--------------------|--------------------|--------------------|
E|--7--------7--------|--7--------7--------|--5--------5--------|--5--------5--------|

Lead Final Outro:

E|-----|-----|-----|--------------|-----|-----|-----|
B|-----|-----|-----|--------------|-----|-----|-----|
G|-----|-----|--4--|--4-----------|-----|--4--|--4--|
D|-----|--6--|--4--|--4--------4--|-----|--4--|--0--|
A|--4--|--7--|--0--|--0--6--7-----|--4--|--0--|--4--|
E|--5--|-----|-----|--------------|--5--|-----|-----|
 
 
Hillsong United - Oceans Where Feet May Fail Tab :: indexed at Ultimate Guitar.
Oceans Where Feet May Fail tabs @ 911Tabs

About the artist behind Oceans Where Feet May Fail Tab:

Hillsong United is the youth ministry of Hillsong Church. The youth ministry is combined of four different ages groups that meet separately but have "United" nights when they come together. The different age groups are; Fuel for years 7 to 9 at school, Wildlife for years 10 to 12 at school, Powerhouse for ages 18 to 25 and Frontline for ages 25 to 35.

Indexed at Wikipedia.

Show us your talent, perform Oceans Where Feet May Fail Tab!

Here you can post a video or audio performance. Tell me more ...
Where can we find your performance? Tell me more ...
Your comment:
Please, log in to post your performance.