Artists by letter: A B C D E F G H I J K L M N O P Q R S T U V W X Y Z 0-9

 
Shacklers Revenge Tab
-------------------------------------------------------------------------------
                     Shackler's Revenge - Guns n' Roses
-------------------------------------------------------------------------------
Tabbed by: Servrocker666
E-mail: [email protected]

Tuning: Drop C# w/ A# 7th string

 Keyboard intro:
           fb
 
eb|--------17~~-------17~~-------17~~-------17~~------------------------------| Bend on both strings.
Bb|--------20~~-------20~~-------20~~-------20~~------------------------------| 
F#|---------------------------------------------------------------------------|
C#|---------------------------------------------------------------------------|
G#|---------------------------------------------------------------------------|
C#|---5-5---------5-5--------5-5--------5-5-----------------------------------|
A#|---1-1---------1-1--------1-1--------1-1-----------------------------------|

Guitar 1 with wah wah sort of effect:
                                P.M. . . . . . . . . . . . . . . . . . . . . .
eb|-----------------------------|---------------------------------------------|
Bb|-----------------------------|---------------------------------------------|
F#|-----------------------------|---------------------------------------------|
C#|-----------------------------|---------------------------------------------|
G#|-----------------------------|---------------------------------------------|
C#|---0-0-0--0-6--6-6p5-5-5-----|---0-0-0-0-0-6p5-0-3h5-3h5-3h5---------------|
A#|-----------------------------|---------------------------------------------|
     Do this 4 times then go to:
     Also has no wah wah thing. 
************************************

| /   slide up
| \   slide down
| h   hammer-on
| p   pull-off
| fb  full bend

************************************
 
 
Guns N Roses - Shacklers Revenge Tab :: indexed at Ultimate Guitar.
Shacklers Revenge tabs @ 911Tabs

Quick tip, so you can enjoy Shacklers Revenge Tab even more:

After the registration (which takes just 10 seconds, remember?) you will be able to use your profile - your very own piece of YourChords.com.

Show us your talent, perform Shacklers Revenge Tab!

Here you can post a video or audio performance. Tell me more ...
Where can we find your performance? Tell me more ...
Your comment:
Please, log in to post your performance.