Artists by letter: A B C D E F G H I J K L M N O P Q R S T U V W X Y Z 0-9

 
Chinese Democracy Tab
e------------------------]
b------------------------]Repeat X3 
g--7-7-x-x---------------] 
d--7-7-x-x-10-10-x-12-12=]
a--5-5-x-x-8--8--x-10-10=]
e------------------------]

e-------------------------------------]
b-------------------------------------]Repeat x2
g--7-7-x-x----------------------------]
d--7-7-x-x-10-10-x-12-12-x-x-13-13-12=]
a--5-5-x-x-8--8--x-10-10-x-x-11-11-10=]
e-------------------------------------]

e---------------------------------------------------------------------------]
b---------------------------------------------------------------------------]
g--7-7-x-x------------------------------------------------------------------]
d--7-7-x-x-10-10-x-12-12-x-x-13-13-12-12-12-x-x-13-13-12-12-12-x-x-13-13-12-]
a--5-5-x-x-8--8--x-10-10-x-x-11-11-10-10-10-x-x-11-11-10-10-10-x-x-11-11-10-]
e---------------------------------------------------------------------------]

A working out of the intro if u listen to it u might work out the patern

e--------------------------------------------------------------------------]
b--------------------------------------------------------------------------]
g--------------------------------------------------------------------------]
d--------------------------------------------------------------------------]
a--5-7-8-10-8-7-8-10--5-7-8-10-9-7-5=-5-7-8-10-8-7-8-10--3-5-7-8-7-5-10-10-]
e--------------------------------------------------------------------------]

e--------------------------------------------------------------------------]
b--------------------------------------------------------------------------]
g--7=================-7==============-7=================-5================-]
d--7=================-7==============-7=================-5================-]
a--5=================-5==============-5=================-3================-]
e--------------------------------------------------------------------------]

dont ask me about the solo
 
 
Guns N Roses - Chinese Democracy Tab :: indexed at Ultimate Guitar.
Chinese Democracy tabs @ 911Tabs

Quick tip, so you can enjoy Chinese Democracy Tab even more:

You might want to transpose the song if it is too high or too low for you to sing. Just click the desired option while playing a song and all the chords will automatically be transponded into a new key.

Show us your talent, perform Chinese Democracy Tab!

Here you can post a video or audio performance. Tell me more ...
Where can we find your performance? Tell me more ...
Your comment:
Please, log in to post your performance.