Artists by letter: A B C D E F G H I J K L M N O P Q R S T U V W X Y Z 0-9

 
Black Tattoo Tab
-------------------------------------------------------------------------------
                             Grinspoon - Black Tattoo
-------------------------------------------------------------------------------
Tabbed by:
E-mail:

Tuning: Drop D (DADGBE)
Intro
e|-------------------------------------------------------------|
B|-------------------------------------------------------------|
G|-------------------------------------------------------------|
D|-----2-5-2-7-8-0-0-2-5-2-7-8-0-0-2-5-2-7-8-0-0-2-5-2-7-8-0-0-|
A|-12\-2-5-2-7-8-0-0-2-5-2-7-8-0-0-2-5-2-7-8-0-0-2-5-2-7-8-0-0-|
D|-12\-2-5-2-7-8-0-0-2-5-2-7-8-0-0-2-5-2-7-8-0-0-2-5-2-7-8-0-0-|x1

Part 2
e|----------------------------------------------|
B|----------------------------------------------|
G|----------------------------------------------|
D|-2222-0-2-2-2222-0-2-5-5555-0-55-7777-5-7-8\\-|
A|-2222-0-2-2-2222-0-2-5-5555-0-55-7777-5-7-8\\-|
E|-2222-0-2-2-2222-0-2-5-5555-0-55-7777-5-7-8\\-|x2

Verses 1
e|----------------------------------------------|
B|----------------------------------------------|
G|----------------------------------------------|
D|-2222-0-2-2-2222-0-2-5-5555-0-55-7777-5-7-8\\-|
A|-2222-0-2-2-2222-0-2-5-5555-0-55-7777-5-7-8\\-|
E|-2222-0-2-2-2222-0-2-5-5555-0-55-7777-5-7-8\\-|x2
PM **** * * * **** * * * **** * ** **** * * 

Verses 2
e|----------------------------------------------|
B|----------------------------------------------|
G|----------------------------------------------|
D|-2222-0-2-2-2222-0-2-5-5555-0-55-7777-5-7-8\\-|
A|-2222-0-2-2-2222-0-2-5-5555-0-55-7777-5-7-8\\-|
E|-2222-0-2-2-2222-0-2-5-5555-0-55-7777-5-7-8\\-|

Chorus 1
e|---------------------------------------------------------------------------|
B|---------------------------------------------------------------------------|
G|---------------------------------------------------------------------------|
D|-222222222222-555555555555-10-10-10-10-10-10-10-10-10-777777777777-10h12\\-|
A|-222222222222-555555555555-10-10-10-10-10-10-10-10-10-777777777777-10h12\\-|
D|-222222222222-555555555555-10-10-10-10-10-10-10-10-10-777777777777-10h12\\-|

Chorus 2
e|------------------------------------------------------------------------------|
B|------------------------------------------------------------------------------|
G|------------------------------------------------------------------------------|
D|-222222222222-555555555555-10-10-10-10-10-10-10-10-10-7-5-6-7--5-6-7--5-6-7\\-|
A|-222222222222-555555555555-10-10-10-10-10-10-10-10-10-7-5-6-7--5-6-7--5-6-7\\-|
D|-222222222222-555555555555-10-10-10-10-10-10-10-10-10-7-5-6-7--5-6-7--5-6-7\\-|

Solo
e|---------------------------------------------------------------|
B |--------------------------------------------------------------|
G|-/7-10-/-7-5---5-7-9b~---7-9-/7-10-/7-5---5-/9~--/-------10-12-|
D|-------------7---------8----------------7----------10-12-------|
A|---------------------------------------------------------------|
D|---------------------------------------------------------------|

e|-------------------------------------|
B|-14b-15b-15-15p14p12h14-14h15p14h15b-|
G|-------------------------------------|
D|-------------------------------------|
A|-------------------------------------|
D|-------------------------------------|

e|--------------------------------------------------|
B|-15b-13-------13----13----13----13----15-13/17~~~-|
G|--------13-15----15----15----15----15-------------|
D|--------------------------------------------------|
A|--------------------------------------------------|
D|--------------------------------------------------|


************************************

| /   slide up
| \   slide down
| h   hammer-on
| p   pull-off
| ~   vibrato
| +   harmonic
| x   Mute note
| b   Bend
| pb  Pre-bend
| br  Bend release
| pbr Pre-bend release
| brb Bend release bend

************************************
 
 
Grinspoon - Black Tattoo Tab :: indexed at Ultimate Guitar.
Black Tattoo tabs @ 911Tabs
People who played Grinspoon - Black Tattoo Tab also played these songs by Grinspoon:
Minute By Minute Tab, Comeback Tab, Hard Act To Follow Tab, Drugs Dont Work Tab, Minute By Minute Acoustic Tab, Sweet As Sugar Tab

About the artist behind Black Tattoo Tab:

Grinspoon are an Australian post-grunge band from Lismore, fronted by Phil Jamieson with Pat Davern on guitar, Joe Hansen on bass, and Kristian Hopes on drums.

Indexed at Wikipedia.

Show us your talent, perform Black Tattoo Tab!

Here you can post a video or audio performance. Tell me more ...
Where can we find your performance? Tell me more ...
Your comment:
Please, log in to post your performance.