Artists by letter: A B C D E F G H I J K L M N O P Q R S T U V W X Y Z 0-9

What Did I Do God As My Witness Tab - Foo Fighters


 
What Did I Do God As My Witness Tab
#----------------------------------PLEASE NOTE--------------------------------#
#This file is the author's own work and represents their interpretation of the#
#song. You may only use this file for private study, scholarship, or research.#
#-----------------------------------------------------------------------------#
#-- File created with Instab - http://www.pconline.com/~smcarey/instab.html --#
#-----------------------------------------------------------------------------#

Author/Artist: Foo Fighters
Title: What Did I Do God As My Witness

b bend
r release bend
/ slide up
\ slide down


Slightly bend notes.
Strum at the 21st fret.

Tuning (eb ab db gb bb eb)
Album Tuning (c# A D G B E), Down ~ 10%, (c#, D) Down ~ 20%
Live Tuning (D A E A E E), Down ~ 10%
Key: (E + D) -> (E + A) or (D + C#)



----|-------------------------|
----|-4---------/11-------4\--|
----|-3---------/8--------3\--|
----|-1----------8--------1---|
----|-1----------8--------1---|
----|-------------------------|
       >>>>>>>>>   >>>>>>>

  Intro










----|---------------------------1----------------------|--|--------------|
----|-8-----6------4-----3------1-------1-------3------|--|-3------------|
----|-8-----6------5-----3------1-------1-------3------|--|-3------------|
----|-8-----6------6-----3------3-------1-------3------|--|-3--------8---|
----|-6-----4------6-----1------3-------3-------1------|--|----------8---|
----|--------------------------------------------------|--|----------6---|
                                                             >>>>>>>>

  Intro Arpeggio Verse











----|---------------------------4---1---1---------------------------------------------|--|
----|-8-----8-----------6-------4---1---1-----------3----3---3-----------3----3---3---|--|
----|-8-----8-----------6-------5---1---1-----------3----3---3-----------3----3---3---|--|
----|-8-----8-----------6---------------------------3----3---3-----------3----3---3---|--|
----|-6-----6-----4--4--4------------------6--7--8--------------6--5--3---------------|--|
----|-----------------------4--------------4--5--6--------------4--3--1---------------|--|


  Verse/Chorus











----|------------------------------------------------------------------------------|--|
----|-3-----3-------------3-----3------------3-----3------------3-----3------------|--|
----|-3-----3-------------3-----3----x-------3-----3------------3-----3----x-------|--|
----|-5-----5-------------5-----5----x-------3-----3------------3-----3----x-------|--|
----|-5-----5----3--4--5--5-----5------4--5------------3--4--5---------------4--5--|--|
----|------------------------------------------------------------------------------|--|


  Bridge Verse





----|-------------------------------------------------------|
----|-1----1----1----1---1---1----3----3----3----3---3---3--|
----|-1----1----1----1---1---1----3----3----3----3---3---3--|
----|-1----1----1----1---1---1----3----3----3----3---3---3--|
----|-------------------------------------------------------|
----|-------------------------------------------------------|
      "Save yourself...."












----|-----11------11-------11-------11-------11----------------------9--8--9------------------|
----|-11--11--11--11--11---11--11---11--11---11--11---13----13--13---9--8--9--14/16---16---16-|
----|-8-------8-------11b------11b------11b------11b--12----12--12---6--5--6--13/15---15---15-|
----|-------------------------------------------------10----10--10------------11/13---13---13-|
----|-------------------------------------------------10----10--10------------11/13---13---13-|
----|-----------------------------------------------------------------------------------------|


  Interlude





--9--8--9-------------------------------------------------------------------9--8--9-------------|
--9--8--9--14/16---16---16--------------------------------------------------9--8--9--14/16--16--|
--6--5--6--13/15---15---15----10br--10br---10--8---5--7/8--8--5--10brp8--5--6--5--6--13/15--15--|
-----------11/13---13---13-----------------------------------------------------------11/13--13--|
-----------11/13---13---13-----------------------------------------------------------11/13--13--|
------------------------------------------------------------------------------------------------|






-------9--8--9--------------------|
--16---9--8--9--14/16---16---16---|
--15---6--5--6--13/15---15---15---|
--13------------11/13---13---13---|
--13------------11/13---13---13---|
----------------------------------|














----|-------------3----------------2----|
----|----------4----------------4-------|
----|-------5----------------4----------|
----|----5----------------4-------------|
----|-3----------------2----------------|
----|-----------------------------------|
     "All of your.......where are.....?"














----|-------------------------------------------------------------|--|---------------------|
----|-------4-----------3--------------------------------------4--|--|-----------------4---|
----|----3-----3-----3-----3--------5-----------3-----------5-----|--|-----------------3---|
----|-1-----------1--------------5-----5-----3-----3-----3--3-----|2x|-----------------1---|
----|-------------------------3-----------1-----------3-----------|--|-----------1--3------|
----|-------------------------------------------------------------|--|-3--4--6-------------|


  Bridge/Solo/End Riff
 
 
Foo Fighters - What Did I Do God As My Witness Tab :: indexed at Ultimate Guitar.
What Did I Do God As My Witness tabs @ 911Tabs

About the artist behind What Did I Do God As My Witness Tab:

Foo Fighters is an American alternative rock band formed by singer/guitarist Dave Grohl in 1995.[1] Grohl formed the group as a one-man project after the dissolution of his previous band Nirvana in 1994. Prior to the release of Foo Fighters in 1995, Grohl drafted Nate Mendel (bass), William Goldsmith (drums), and Pat Smear (guitar) to complete the group. Goldsmith and Smear left after the recording of the group's second album The Colour and the Shape (1997). They were replaced by Taylor Hawkins and Franz Stahl, respectively, although Stahl left prior to the recording of the group's third album, There Is Nothing Left to Lose (1999).

Chris Shiflett joined as the band's second guitarist after the completion of There is Nothing Left to Lose. The band released its fourth album One by One in 2002. The group followed that release with the two-disc In Your Honor (2005), which was split between acoustic songs and harder-rocking material. Foo Fighters released its sixth album Echoes, Silence, Patience & Grace in 2007. Over the course of the band's career, three of its albums have won Grammy Awards for Best Rock Album, and all six have been nominated for Grammys.

Indexed at Wikipedia.

Show us your talent, perform What Did I Do God As My Witness Tab!

Here you can post a video or audio performance. Tell me more ...
Where can we find your performance? Tell me more ...
Your comment:
Please, log in to post your performance.