Artists by letter: A B C D E F G H I J K L M N O P Q R S T U V W X Y Z 0-9

Something From Nothing Tab (ver 5) - Foo Fighters


 
Something From Nothing Tab
Intro Guitar#1:

E|---------------------------------------------------------------------------| 
B|---0---0---0---0---0---0---0---0---0---0---0---0---0---0---0---0-----------| 
G|---0---0---0---0---0---0---0---0---0---0---0---0---0---0---0---0-----------| 
D|-2---2---2---2-------------------2---2---2---2-----------------------------| 
A|---------------------------------------------------------------------------| 
E|-----------------0---0---0---0-------------------0---0---0---0-------------| 


Verse Guitar#1:

E|---------------------------------------------------------------------------| 
B|---0---0---0---0---0---0---0---0---0---0---0---0---0---0---0---0-----------| 
G|---0---0---0---0---0---0---0---0---0---0---0---0---0---0---0---0-----------| 
D|-2---2---2---2---1---1---1---1---0---0---0---0-----------------------------| 
A|-------------------------------------------------4---4---4---4-------------| 
E|---------------------------------------------------------------------------| 



E|-----------------------------------| 
B|---0---0---0---0---0---0---0---0---| 
G|---0---0---0---0---0---0---0---0---| 
D|---------2---2---------------------| 
A|-3---3-----------0---0---0---0-----| 
E|-----------------------------------| 


Verse Guitar#2:

E|----------------------------------------------| 
B|----------------------------------------------| 
G|-9~---12s8~---12s7~---12s6~---5~---9~---12~---| 
D|----------------------------------------------| 
A|----------------------------------------------| 
E|----------------------------------------------| 


Chorus Guitar#1:

E|-------------------------------------------------------------------| 
B|-------------------------------------------------------------------| 
G|-------------------------------------------------------------------| 
D|-------------------------------------------------------5---9-------| 
A|-2-----------5---4----------2-----------5---4----------3---7---7---| 
E|-0---2---3-----------5------0---2---3-----------5--------------5---| 


Chorus Guitar#2:

E|-------------------------------------------------------------------| 
B|-------------------------------------------------------------------| 
G|-------------------------------------------------------------------| 
D|-2--/4---5--/12--11~--------2--/4---5--/12--11~-----/10--/14--/7---| 
A|-------------------------------------------------------------------| 
E|-------------------------------------------------------------------| 


Verse Guitar#2:

E|----------------------------------------------| 
B|----------------------------------------------| 
G|-9~---12s8~---12s7~---12s6~---5~---9~---12~---| 
D|----------------------------------------------| 
A|----------------------------------------------| 
E|----------------------------------------------| 

Chorus Guitar#1:

E|-------------------------------------------------------------------| 
B|-------------------------------------------------------------------| 
G|-------------------------------------------------------------------| 
D|-------------------------------------------------------5---9-------| 
A|-2-----------5---4----------2-----------5---4----------3---7---7---| 
E|-0---2---3-----------5------0---2---3-----------5--------------5---| 


Chorus Guitar#2:

E|-------------------------------------------------------------------| 
B|-------------------------------------------------------------------| 
G|-------------------------------------------------------------------| 
D|-2--/4---5--/12--11~--------2--/4---5--/12--11~-----/10--/14--/7---| 
A|-------------------------------------------------------------------| 
E|-------------------------------------------------------------------| 


Breakdown: 
                              x8
E|-----------------------------| 
B|-----------------------------| 
G|-----------------------------| 
D|-----------------9--11--12---| 
A|-5h7-----5h7-----7--9---10---| 
E|-0---0-0-0---0-0-------------| 


Mid-Solo Guitar#1:
                    x3
E|-------------------| 
B|-------------------| 
G|-5------9----------| 
D|-5------9------7---| 
A|-3------7------7---| 
E|---------------5---| 


Mid-Solo Guitar#2:

E|-------------------------------------------------------------| 
B|-------------------------------------------------------------| 
G|-------------------------------------------------------------| 
D|----------5---7s9-7-5---5h7--------------5---7s9-7-5---5h7---| 
A|-/3---5/7-------------7----------3---5/7-------------7-------| 
E|-------------------------------------------------------------| 

Breakdown: 
                              x20
E|-----------------------------| 
B|-----------------------------| 
G|-----------------------------| 
D|-----------------9--11--12---| 
A|-5h7-----5h7-----7--9---10---| 
E|-0---0-0-0---0-0-------------| 


Breakdown 2 Guitar#1:
                                                     x2
E|----------------------------------------------------| 
B|----------------------------------------------------| 
G|-9---8-7---6-5---3-2---------8-7---6-5---3-2--------| 
D|-9---8-7---6-5---3-2---3-2---8-7---6-5---3-2---3-2--| 
A|-7---6-5---4-3---1-0---3-2---6-5---4-3---1-0---3-2--| 
E|-----------------------1-0---------------------1-0--| 


Breakdown 2 Guitar#2:
                        It starts when Guitar #1 plays E on 6th string on the breakdown 2
                                                                                       x3
E|--------------------------------------------------------------------------------------| 
B|--------------------------------------------------------------------------------------| 
G|--------------------------------------------------------------------------------------| 
D|----------5--5-7p5--------------7--7-9p7--------------5--5-7p5-------------2--2-4p2---| 
A|------5s7----------7--/5--5-7s9----------9--/3--3-5s7----------7--0--0-2s4----------4-| 
E|-0--0---------------------------------------------------------------------------------| 


Outro: 
                                                                            x2
E|---------------------------------------------------------------------------| 
B|-8-----8-----8-------10----10----10------8-----8-----8-------5---5---5-----| 
G|-10b12-10b12-10b12---12b14-12b14-12b14---10b12-10b12-10b12---7b9-7b9-7b9---| 
D|---------------------------------------------------------------------------| 
A|---------------------------------------------------------------------------| 

Breakdown: 
                              x12
E|-----------------------------| 
B|-----------------------------| 
G|-----------------------------| 
D|-----------------9--11--12---| 
A|-5h7-----5h7-----7--9---10---| 
E|-0---0-0-0---0-0-------------| Then you must play the same 4 times a tone upper.

The End Both Guitars:

E|------------------| 
B|------------------| 
G|-------------7---2| 
D|-2---4---5---7---2| 
A|-2---4---5---5---4| 
E|-0---2---3--------| 

Diego A.




 
 
Foo Fighters - Something From Nothing Tab :: indexed at Ultimate Guitar.
Something From Nothing tabs @ 911Tabs

About the artist behind Something From Nothing Tab:

Foo Fighters is an American alternative rock band formed by singer/guitarist Dave Grohl in 1995.[1] Grohl formed the group as a one-man project after the dissolution of his previous band Nirvana in 1994. Prior to the release of Foo Fighters in 1995, Grohl drafted Nate Mendel (bass), William Goldsmith (drums), and Pat Smear (guitar) to complete the group. Goldsmith and Smear left after the recording of the group's second album The Colour and the Shape (1997). They were replaced by Taylor Hawkins and Franz Stahl, respectively, although Stahl left prior to the recording of the group's third album, There Is Nothing Left to Lose (1999).

Chris Shiflett joined as the band's second guitarist after the completion of There is Nothing Left to Lose. The band released its fourth album One by One in 2002. The group followed that release with the two-disc In Your Honor (2005), which was split between acoustic songs and harder-rocking material. Foo Fighters released its sixth album Echoes, Silence, Patience & Grace in 2007. Over the course of the band's career, three of its albums have won Grammy Awards for Best Rock Album, and all six have been nominated for Grammys.

Indexed at Wikipedia.

Show us your talent, perform Something From Nothing Tab!

Here you can post a video or audio performance. Tell me more ...
Where can we find your performance? Tell me more ...
Your comment:
Please, log in to post your performance.