Artists by letter: A B C D E F G H I J K L M N O P Q R S T U V W X Y Z 0-9

Something From Nothing Tab (ver 3) - Foo Fighters


 
Something From Nothing Tab
------------------------------------
Foo Fighters- Something from Nothing
------------------------------------

---------------------------------------------
Tabbed by Jordan Cairns ([email protected])
---------------------------------------------
Tuning: E Standard 



Intro/Verse (Rhythm)
-----------

 |   |   |   |    |   |   |   |    |   |   |   |    |   |   |   |    
|----------------|----------------|----------------|----------------|
|----------------|----------------|----------------|----------------|
|----0-------0---|----0-------0---|----0-------0---|----0-------0---|
|----5-------5---|----5-------5---|----5-------5---|----5-------5---| x3
|7-------7-------|7-------7-------|----------------|----------------|
|----------------|----------------|0-------0-------|0-------0-------|
 
 |   |   |   |    |   |   |   |    |   |   |   |    |   |   |   |    
|----------------|----------------|----------------|----------------|
|----------------|----------------|----------------|----------------|
|----0-------0---|----0-------0---|----0-------0---|----0-------0---|
|----5-------5---|----5-------5---|----5-------5---|----5-------5---|
|6-------6-------|6-------6-------|5-------5-------|5-------5-------|
|----------------|----------------|----------------|----------------|
 
 |   |   |   |    |   |   |   |    |   |   |   |    |   |   |   |       
|----------------|----------------|----------------|----------------|   
|----------------|----------------|----------------|----------------|    
|----0-------0---|----0-------0---|----0-------0---|----0-------0---|   
|----5-------5---|----5-------5---|----5-------5---|----5-------5---|  
|4-------4-------|4-------4-------|3-------3-------|7-------7-------|
|----------------|----------------|----------------|----------------|
 
 |   |   |   |    |   |   |   |    |   |   |   |    |   |   |   |    
|----------------|----------------|----------------|----------------|
|----------------|----------------|----------------|----------------|
|----0-------0---|----0-------0---|----------------|----------------|
|----5-------5---|----5-------5---|----------------|----------------|
|----------------|----------------|----------------|----------------|
|5-------5-------|5-------5-------|----------------|----------------|
 
Verse (Lead)
------------

 |   |   |   |    |   |   |   |    |   |   |   |    |   |   |   |    
|----------------|----------------|----------------|----------------|
|----------------|8/--------------|8/--------------|8/--------------|
|-5/9~-----------|--------5/8-----|--------/7------|--------/6------|
|----------------|----------------|----------------|----------------|
|----------------|----------------|----------------|----------------|
|----------------|----------------|----------------|----------------|
 
 |   |   |   |    |   |   |   |    |   |   |   |    |   |   |   |    
|----------------|----------------|----------------|----------------|
|----------------|----------------|----------------|----------------|
|-5-------/9-----|-/12------------|----------------|----------------|
|----------------|----------------|----------------|----------------|
|----------------|----------------|----------------|----------------|
|----------------|----------------|----------------|----------------|

--------
Verse x1|
--------

--------
Bridge
--------

 |   |   |   |    |   |   |   |    |   |   |   |    |   |   |   |    
|----------------|----------------|----------------|----------------|
|----------------|----------------|----------------|----------------|
|----------------|----------------|----------------|----------------|  - x2
|----------------|----------------|----------------|----------------|
|----------------|-------/5-------|4---------------|----------------|
|0-------2-------|3---------------|----------------|5---------------|

 |   |   |   |    |   |   |   |    |   |   |   |    |   |   |   |    
|(0)-------------|(0)-------------|----------------|----------------|
|(0)-------------|(0)-------------|(0)-------------|----------------|
|-5--------------|-9--------------|(0)-------------|----------------|
|-5--------------|-9--------------|-7--------------|----------------|
|-3--------------|-7--------------|-7--------------|----------------|
|----------------|----------------|-5--------------|----------------|

Verse x1
---------

Bridge x1
---------

Funky Bit
---------
Guitar 2

 |   |   |   |    |   |   |   |    |   |   |   |    |   |   |   |    
|----------------|----------------|----------------|----------------|
|----------------|----------------|----------------|----------------|
|7h9-x-x--7h9-x-x|-9---11--12-----|----------------|----------------|
|7h9-x-x--7h9-x-x|-9---11--12-----|----------------|----------------| - A whole bunch of times
|7---x-x--7h--x-x|-7---9---10-----|----------------|----------------|
|0---x-x--0---x-x|-0--------------|----------------|----------------|

Guitar 1

 |   |   |   |    |   |   |   |    |   |   |   |    |   |   |   |    
|----------------|----------------|----------------|----------------|
|----------------|----------------|----------------|----------------|
|----------------|----------------|----------------|----------------|
|-0h2-x-x-0h2-x-x|-2---4---5------|----------------|----------------| - A whole bunch of times
|-0h2-x-x-0h2-x-x|-2---4---5------|----------------|----------------|
|-0---x-x-0---x-x|-0--------------|----------------|----------------|


 |   |   |   |    |   |   |   |    |   |   |   |    |   |   |   |    
|(0)-------------|(0)-------------|----------------|----------------|
|(0)-------------|(0)-------------|(0)-------------|----------------|
|-5--------------|-9--------------|(0)-------------|----------------|
|-5--------------|-9--------------|-7--------------|----------------|
|-3--------------|-7--------------|-7--------------|----------------|
|----------------|----------------|-5--------------|----------------|


 |   |   |   |    |   |   |   |    |
|-----------------|----------------|
|-----------------|----------------|
|-----------------|----------------|
|---------5---7/9-|-7h5---5/7~-----|   x2
|-3-3-5h7---7-----|-----7----------|
|-----------------|----------------|


Fill
----

 |   |   |   |    |   |   |   |    |   |   |   |    |   |   |   |    
|------0--0--0--0-|----0-0-0-0-----|-0--0--0--0-----|-0--0--0--0-----|
|------11-11-11-11|----8-8-8-8-----|-11-11-11-11----|-14-14-14-14----|
|------12-12-12-12|----9-9-9-9-----|-12-12-12-12----|-15-15-15-15----|
|-----------------|----------------|----------------|----------------|
|-----------------|----------------|----------------|----------------|
|-3/12------------|----------------|----------------|----------------|

 |   |   |   |    |   |   |   |    |   |   |   |    |   |   |   |    
|-----------------|----------------|----------------|----------------|
|-----------------|----------------|----------------|----------------|
|-----------------|----------------|----------------|----------------|
|-----------------|-11~~-----------|----------------|----------------|
|-7-7-9p7-10p7----|----------------|----------------|----------------|
|-----------------|----------------|----------------|----------------|




 |   |   |   |    |   |   |   |    |   |   |   |    |   |   |   |    
|(0)-------------|(0)-------------|----------------|----------------|
|(0)-------------|(0)-------------|(0)-------------|----------------|
|-5--------------|-9--------------|(0)-------------|----------------|
|-5--------------|-9--------------|-7--------------|----------------| x3
|-3--------------|-7--------------|-7--------------|----------------|
|----------------|----------------|-5--------------|----------------|

Guitar 2

 |   |   |   |    |   |   |   |    |   |   |   |    |   |   |   |    
|---------------|-----------------|-----------------|----------------|
|---------------|-----------------|-----------------|----------------|
|---------------|-----------------|-9---11--12------|----------------|
|7h9-9---9---9--|7h9-9---9---9----|-9---11--12------|----------------| - Few times
|7---7---7---7--|7---7---7---7----|-7---9---10------|----------------|
|0---0---0---0--|0---0---0---0----|(0)-(0)-(0)------|----------------|

Guitar 1

 |   |   |   |    |   |   |   |    |   |   |   |    |   |   |   |    
|----------------|----------------|----------------|----------------|
|----------------|----------------|----------------|----------------|
|----------------|----------------|----------------|----------------|
|-0h2-2-2-0h2-2-2|-2---4---5------|----------------|----------------|
|-0h2-2-2-0h2-2-2|-2---4---5------|----------------|----------------|
|-0---0-0-0---0-0|-0---2---3------|----------------|----------------|

Then

 |   |   |   |    |   |   |   |    |   |   |   |    |   |   |   |    
|-----------------|----------------|----------------|----------------|
|-----------------|----------------|----------------|----------------|
|--------8---7----|---6---5--------|---3---2--------|----------------|
|-2------8---7----|---6---5--------|---3---2--------|---3---2--------|
|-2------6---5----|---4---3--------|---1---0--------|---3---2--------|
|-0---------------|----------------|----------------|---1---0--------|

Bridge Lead
-----------

|------------------------------------------------------------
|------------------------------------------------------------
|------------------------------------------------------------
|-2------5-5-5h7p5------------7-7-7h9p7----------5-5-5h7p5---
|-2--5/7-----------7---5--7/9-----------9--3-5/7-----------7-
|-0----------------------------------------------------------

|-------------------|
|-------------------|
|-------------------|
|--------2-4p2------|
|-0-2/4--------4----|
|-------------------|

(thanks to merijndh)

Then

 |   |   |   |    |   |   |   |    |   |   |   |    |   |   |   |    
|-----------------|----------------|----------------|-----------------|
|-----------------|----------------|----------------|-----------------|
|--12-x-x-12-x-x--|-12-x-x-12-x-x--|14b-x-x-14b-x-x-|-14b-x-x-14/16-14|
|-----x-x----x-x--|----x-x----x-x--|----x-x-----x-x-|-----x-x---------|
|--10-x-x-10-x-x--|-10-x-x-10-x-x--|12b-x-x-12b-x-x-|-12b-x-x-12/14-12|
|-----x-x----x-x--|----x-x----x-x--|----x-x-----x-x-|-----x-x---------|

 |   |   |   |    |   |   |   |    |   |   |   |     |    |   |   |      
|-----------------|----------------|-----------------|----------------|
|-----------------|----------------|-----------------|----------------|
|--12-x-x-12-x-x--|-12-x-x-10-x-x--|--9--x-x-9--x-x--|-9--x-x---------|
|-----x-x----x-x--|----x-x----x-x--|-----x-x----x-x--|----x-x-----3---|
|--10-x-x-10-x-x--|-10-x-x-8--x-x--|--7--x-x-7--x-x--|-7--x-x-----3---|
|-----x-x----x-x--|----x-x----x-x--|-----x-x----x-x--|----x-x-----1---|

second time around finish with

 |   |   |   |     
|----------------|
|----------------|
|-9-9-9-9-9-9-9-9|
|----------------|
|-7-7-7-7-7-7-7-7|
|----------------|

and back to

 |   |   |   |    |   |   |   |    |   |   |   |    |   |   |   |    
|---------------|-----------------|-----------------|----------------|
|---------------|-----------------|-----------------|----------------|
|---------------|-----------------|(9)-(11)(12)-----|----------------|
|7h9---9---9----|7h9---9---9------|-9---11--12------|----------------| - Few times
|7-----7---7----|7-----7---7------|-7---9---10------|----------------|
|0-----0---0----|0-----0---0------|(0)-(0)-(0)------|----------------|

Lead part over top of above riff



 |   |   |   |   |   |   |   |    |   |   |   |    |   |   |   |    
|----------------|----------------|----------------|----------------|
|----------------|----------------|----------------|----------------|
|-9-9-9-9-9-9-9-9|-9b-------------|----------------|----------------|
|----------------|----------------|----------------|----------------|
|-7-7-7-7-7-7-7-7|-7b-------------|----------------|----------------|
|----------------|----------------|----------------|----------------|
                  \______ _______/
                         |
                    Bend while
                    strumming (1 step)


 |   |   |   |     
|----------------|
|----------------|
|-12-12-12-12----|
|----------------|  for a while
|-10-10-10-10----|
|----------------|

then

 |   |   |   |    |   |   |   |    |   |   |   |    |   |   |   |    
|----------------|----------------|----------------|----------------|
|----------------|----------------|----------------|----------------|
|--14/16-16-16---|--14/16-16-16---|-16-18-19-------|----------------|
|----------------|----------------|----------------|----------------| a bunch of times
|--12/14-14-14---|--12/14-14-14---|-14-16-17-------|----------------|
|----------------|----------------|----------------|----------------|

to finish

 |   |   |   |    |   |   |   |    |   |   |   |    |   |   |   |    
|----------------|0~---------------|----------------|----------------|
|----------------|0~---------------|----------------|----------------|
|------------7---|2~---------------|----------------|----------------|
|2---4---5---7---|2~---------------|----------------|----------------|
|2---4---5---5---|4~---------------|----------------|----------------|
|0---2---3-------|-----------------|----------------|----------------|

Still have to figure out the solo and some other lead parts, but thought this is a good enough start. Please
comment with any suggestions/fixes.
 
 
Foo Fighters - Something From Nothing Tab :: indexed at Ultimate Guitar.
Something From Nothing tabs @ 911Tabs

About the artist behind Something From Nothing Tab:

Foo Fighters is an American alternative rock band formed by singer/guitarist Dave Grohl in 1995.[1] Grohl formed the group as a one-man project after the dissolution of his previous band Nirvana in 1994. Prior to the release of Foo Fighters in 1995, Grohl drafted Nate Mendel (bass), William Goldsmith (drums), and Pat Smear (guitar) to complete the group. Goldsmith and Smear left after the recording of the group's second album The Colour and the Shape (1997). They were replaced by Taylor Hawkins and Franz Stahl, respectively, although Stahl left prior to the recording of the group's third album, There Is Nothing Left to Lose (1999).

Chris Shiflett joined as the band's second guitarist after the completion of There is Nothing Left to Lose. The band released its fourth album One by One in 2002. The group followed that release with the two-disc In Your Honor (2005), which was split between acoustic songs and harder-rocking material. Foo Fighters released its sixth album Echoes, Silence, Patience & Grace in 2007. Over the course of the band's career, three of its albums have won Grammy Awards for Best Rock Album, and all six have been nominated for Grammys.

Indexed at Wikipedia.

Show us your talent, perform Something From Nothing Tab!

Here you can post a video or audio performance. Tell me more ...
Where can we find your performance? Tell me more ...
Your comment:
Please, log in to post your performance.