Artists by letter: A B C D E F G H I J K L M N O P Q R S T U V W X Y Z 0-9

 

My Hero Acoustic Tab
Intro: 
       2x                     4x
e|-----0---------|--0---0-0---4--4-4-4-4-4-4-4-4--|--2------------0~--|
B|---4---4-0--0--|--0---0-0---4--7-4-4-4-7-4-4-4--|--2-----2------2~--|
G|---------------|--1---1-1---6--6-6-6-6-6-6-6-6--|--2-------2-1--2~--|
D|---------------|--2---2-2---6--6-6-6-6-6-6-6-6--|--4---4--------2~--|
A|---------------|--2---2-2---4--4-4-4-4-4-4-4-4--|--4------------0~--|
E|-0-------------|--0---0-0---4--4-4-4-4-4-4-4-4--|--2----------------|

Verse: 1
e|--0---0-0---4-------------------|Too alarming now to talk about
B|--0---0-0---4--7-4-4-4-7-4-4-4--|Take your pictures down and shake it out
G|--1---1-1---6-------------------|Truth or consequence say it aloud
D|--2---2-2---6-------------------|Use that evidence race it around
A|--2---2-2---4-------------------|
E|--0---0-0---4-------------------|

Chorus: 2x
e|--0---0----------0-0-0-0--|--0---0-------------------|There goes my hero
B|--2---2--4-4-4-4----------|--2---2--4-4-4-4-2-2-2-2--|Watch him as he goes
G|--2---2-------------------|--2---2-------------------|There goes my hero
D|--2---2-------------------|--2---2-------------------|He s ordinary
A|--0---0-------------------|--0---0-------------------|
E|--------------------------|--------------------------|

e|--0---0---------------0-0-0-0--|--0--2-2-2-2-4-4-4-4----------|
B|--0---2-2-2-2-4-4-4-4----------|--0------------------4-4-4-4--|
G|--1---1------------------------|--1---------------------------|
D|--2---2------------------------|--2---------------------------|
A|--2---2------------------------|--2---------------------------|
E|--0---0------------------------|--0---------------------------|

e|--2------------0-----0-------|
B|--2-----2------2---4---4-2---|
G|--2-------2-1--2-------------|
D|--4---4--------2-------------|
A|--4------------0-------------|
E|--2--------------------------|

Verse: 2
e|--0---0-0---4-------------------|Don t the best of them bleed it out
B|--0---0-0---4--7-4-4-4-7-4-4-4--|While the rest of them peter out
G|--1---1-1---6-------------------|Truth or consequence say it aloud
D|--2---2-2---6-------------------|Use that evidence race it around
A|--2---2-2---4-------------------|
E|--0---0-0---4-------------------|

Chorus: 2x
e|--0---0----------0-0-0-0--|--0---0-------------------|There goes my hero
B|--2---2--4-4-4-4----------|--2---2--4-4-4-4-2-2-2-2--|Watch him as he goes
G|--2---2-------------------|--2---2-------------------|There goes my hero
D|--2---2-------------------|--2---2-------------------|He s ordinary
A|--0---0-------------------|--0---0-------------------|
E|--------------------------|--------------------------|

e|--0---0---------------0-0-0-0--|--0--2-2-2-2-4-4-4-4----------|
B|--0---2-2-2-2-4-4-4-4----------|--0------------------4-4-4-4--|
G|--1---1------------------------|--1---------------------------|
D|--2---2------------------------|--2---------------------------|
A|--2---2------------------------|--2---------------------------|
E|--0---0------------------------|--0---------------------------|

e|--2------------0---|
B|--2-----2------2---|
G|--2-------2-1--2---|
D|--4---4--------2---|
A|--4------------0---|
E|--2----------------|

Bridge:     
e|--0-0-------0----0-0---4-----|-0-0-------0----0-0------4--------------4-4---|
B|--0---4-0---0----0---4-5---4-|-0---4-0---0----0---4-0--5--4-4-5-5-7-7-------|
G|--1---------1----1-----6-6---|-1---------1----1--------6--------------------|
D|--2---------2----2-----6-----|-2---------2----2--------6--------------------|
A|--2---------2----2-----4-----|-2---------2----2--------4--------------------|
E|--0---------0----0-----4-----|-0---------0----0--------4--------------------|
                3x                                1x
e|--0-0-0-0-0--4------------------|--0-0-0-0-0--4-----------------4-4-4-4--|
B|--0----------4-4-4-4-4-4-4-4-4--|--0----------5-5-5-5-5-7-7-7-7----------|
G|--1----------6------------------|--1----------6--------------------------|
D|--2----------6------------------|--2----------6--------------------------|
A|--2----------4------------------|--2----------4--------------------------|
E|--0----------4------------------|--0----------4--------------------------|

Verse: 3
e|--0---0-0---4---4-4---4---4-4---|Kudos my hero
B|--0---0-0---5---5-5---5---5-5---|Leaving all the best
G|--1---1-1---6---6-6---6---6-6---|You know my hero
D|--2---2-2---6---6-6---6---6-6---|The one that s on 
A|--2---2-2---4---4-4---4---4-4---|
E|--0---0-0---4---4-4---4---4-4---|

Chorus: 4x
e|--0---0----------0-0-0-0--|--0---0-------------------|There goes my hero
B|--2---2--4-4-4-4----------|--2---2--4-4-4-4-2-2-2-2--|Watch him as he goes
G|--2---2-------------------|--2---2-------------------|There goes my hero
D|--2---2-------------------|--2---2-------------------|He s ordinary
A|--0---0-------------------|--0---0-------------------|
E|--------------------------|--------------------------|

e|--0---0---------------0-0-0-0--|--0--2-2-2-2-4-4-4-4----------|
B|--0---2-2-2-2-4-4-4-4----------|--0------------------4-4-4-4--|
G|--1---1------------------------|--1---------------------------|
D|--2---2------------------------|--2---------------------------|
A|--2---2------------------------|--2---------------------------|
E|--0---0------------------------|--0---------------------------|

End:
e|--2------------0--------------|
B|--2-----2------2--------------|
G|--2-------2-1--2--------------|
D|--4---4--------2---1--2-1-----|
A|--4------------0----------4---|
E|--2---------------------------|


Let me explain one thing here. This tab focus on people intending to play with only one guitar so this is an 
option since it can kind of cover the chords with the notes that goes along with the song in its original 
version. In case you think it's too much work you can just play E and Cm# in verse and A and E for chorus
 ending whith F#m to A. The lyrics are besides the tabs because I believe it will be
 easier to read while playing along.

 
 
Foo Fighters - My Hero Acoustic Tab :: indexed at Ultimate Guitar.
My Hero Acoustic tabs @ 911Tabs

About the artist behind My Hero Acoustic Tab:

Foo Fighters is an American alternative rock band formed by singer/guitarist Dave Grohl in 1995.[1] Grohl formed the group as a one-man project after the dissolution of his previous band Nirvana in 1994. Prior to the release of Foo Fighters in 1995, Grohl drafted Nate Mendel (bass), William Goldsmith (drums), and Pat Smear (guitar) to complete the group. Goldsmith and Smear left after the recording of the group's second album The Colour and the Shape (1997). They were replaced by Taylor Hawkins and Franz Stahl, respectively, although Stahl left prior to the recording of the group's third album, There Is Nothing Left to Lose (1999).

Chris Shiflett joined as the band's second guitarist after the completion of There is Nothing Left to Lose. The band released its fourth album One by One in 2002. The group followed that release with the two-disc In Your Honor (2005), which was split between acoustic songs and harder-rocking material. Foo Fighters released its sixth album Echoes, Silence, Patience & Grace in 2007. Over the course of the band's career, three of its albums have won Grammy Awards for Best Rock Album, and all six have been nominated for Grammys.

Indexed at Wikipedia.

Show us your talent, perform My Hero Acoustic Tab!

Here you can post a video or audio performance. Tell me more ...
Where can we find your performance? Tell me more ...
Your comment:
Please, log in to post your performance.