Artists by letter: A B C D E F G H I J K L M N O P Q R S T U V W X Y Z 0-9

 
Live In Skin Chords
Artist: Foo Fighters
Song: Live In Skin
Album: There is nothing left to lose
Tabbed by: Dave Grayhl
Tuning: DADBGe

Chords;
   D1 D2 C  G  Gm      
e|-0--2--3--3--3--|
B|-3--3--1--3--3--|
G|-2--2--0--0--0--|
D|-0--0--2--0--0--|
A|-0--0--3--2--1--|
D|-0--0-----------|

Intro
e|--0-0-0----0-0-0----|
B|--3-3-3----3-3-3----|
G|--2-2-2----2-2-2----|
D|--0-0-0----0-0-0----|
A|--0-0-0----0-0-0----|
D|--0-0-0----0-0-0----|
               | <---- Start main riff below (played throughout).
           e|-------------------------------------|
           B|-------------------------------------|
           G|-------------------------------------|
           D|-------------------------------------|
           A|------5-----5-----2-2-0-0-2-0-0--4-5-|
           D|--0-5---0-4----0--2-2-0-0-2-0-0------|

Verse:
D1 ( main riff )
Take your payroll, and your lottery,
There's a place I know,
There's a robbery, and I swear I'll never tell
If you swear you'll never tell, and
We'll all make out so well
We will all make out so well

Chorus: (chords as shown above)
D2              C     D2              G
Head on with my hate, into the lights ahead
    D2                    Gm      
I'm amazed that I'm still standing
      C                        G
And I demand that we all blend in
      D2
I'm amounted 

Verse:
D1
just the same old glitter story
From the sea floor, metamorphosis
And I can't change back for you
I will not change back for you
I must live in skin that's new
I'm a livid skin that's new

Chorus:
D2              C     D2              G
Head on with my hate, into the lights ahead
    D2                    Gm      
I'm amazed that I'm still standing
      C                        G
And I demand that we all blend in X2

      D2
I'm amounted I'm amounted.

D2                Gm
Turn your insides out to the outside
D2               Gm
Turn the outside in to the inside,
D2                 Gm
Trade your outside in for the inside
C              G       
Turn it around again, X2

D2
I'm amounted X4

And I can't change back for you, no I can't change back for youooohoo.

I'm amounted.

           e|-------------------------------------|
           B|-------------------------------------|
           G|-------------------------------------|
           D|-------------------------------------|
           A|------5-----5-----2-2-0-0-2-0-0--4-5-|
           D|--0-5---0-4----0--2-2-0-0-2-0-0------|


 
 
Foo Fighters - Live In Skin Chords :: indexed at Ultimate Guitar.
Live In Skin tabs @ 911Tabs

About the artist behind Live In Skin Chords:

Foo Fighters is an American alternative rock band formed by singer/guitarist Dave Grohl in 1995.[1] Grohl formed the group as a one-man project after the dissolution of his previous band Nirvana in 1994. Prior to the release of Foo Fighters in 1995, Grohl drafted Nate Mendel (bass), William Goldsmith (drums), and Pat Smear (guitar) to complete the group. Goldsmith and Smear left after the recording of the group's second album The Colour and the Shape (1997). They were replaced by Taylor Hawkins and Franz Stahl, respectively, although Stahl left prior to the recording of the group's third album, There Is Nothing Left to Lose (1999).

Chris Shiflett joined as the band's second guitarist after the completion of There is Nothing Left to Lose. The band released its fourth album One by One in 2002. The group followed that release with the two-disc In Your Honor (2005), which was split between acoustic songs and harder-rocking material. Foo Fighters released its sixth album Echoes, Silence, Patience & Grace in 2007. Over the course of the band's career, three of its albums have won Grammy Awards for Best Rock Album, and all six have been nominated for Grammys.

Indexed at Wikipedia.

Show us your talent, perform Live In Skin Chords!

Here you can post a video or audio performance. Tell me more ...
Where can we find your performance? Tell me more ...
Your comment:
Please, log in to post your performance.