Artists by letter: A B C D E F G H I J K L M N O P Q R S T U V W X Y Z 0-9

Willie And The Hand Jive Tab (ver 2) - Eric Clapton


 
Willie And The Hand Jive Tab
WILLIE AND THE HAND JIVE

As recorded by Eric Clapton
(From the 1974 Album 461 OCEAN BOULEVARD)

Words and Music by Johnny Otis
Arranged by Eric Clapton

Transcribed by Slowhand


Gtr I (E A D G B E) - 'Eric Clapton - Electric Guitar'
Gtr II (E A D G B E) - 'George Terry - Electric Guitar'


 Intro
  Q=90
  G A                          G A
 4/4
  Gtr I (El. Gtr. w/ amp tremolo)
  S E S S S S S S S S S S E.   S E S S S S S S S E S S S S
|-----5-----5-----------5----|-----5-----5-----------------|
|-3s5-5-----5-----------5----|-3s5-5-----5-------5-5-----0-|
|-4s6-6-----6---------6-6----|-4s6-6-----6-------6-6---6-0-|
|-5s7-------7-----7-7-7------|-5s7-------7-------7-7---7---|
|-0-------0-----0-0-0-0------|-0-------0-------0---0-------|
|----------------------------|-----------------------------|


  G A
  S E S E   S S S S S S S S E
|-----5-----5-----------------|
|-3s5-5-----5-----------5-----|
|-4s6-6-----6-----------6-----|
|-5s7-------7-------7-7-7-----|
|-0---------------0-0-0-------|
|-----------------------------|
|
| Gtr II (El. Gtr.)
| Q     S S E   H
|-----------------------------|
|-------5---------------------|
|-------6---------------------|
|-----------------------------|
|-----------------------------|
|-----------------------------|


  G A                              G G#A
  S E S S S S S S S S S S  E   S   S S S S E S S +S  S E S E.
|-----5-----5--------------------|-------5-----------5---5-----|
|-3s5-5-----5-------5-5-5------0-|-3s4s5-5---3s5-(5)-5---5-----|
|-4s6-6-----6-------6-6-6------0-|-4s5s6-6---4s6-(6)-6---6-----|
|-5s7-----7-------7-7-7-7--------|-5s6s7-----5s7-(7)-----7-----|
|-0---------------0-----0--------|-0---------0-----------------|
|--------------------------------|-----------------------------|
|
| H             E   S S S +E   S   W
|--------------------------------|-----------------------------|
|-------------------5-5-5-(5)\---|-----------------------------|
|-------------------6-6-6-(6)\---|-----------------------------|
|-------------------7-7-7-(7)\---|-----------------------------|
|--------------------------------|-----------------------------|
|--------------------------------|-----------------------------|


  G A                         G A
  S E S E S S S S S S S S E   S E S E S S S S S S S S E
|-----5---5-----------5-----|-----5---5-----------5-----|
|-3s5-5---5-----5-----5-----|-3s5-5---5-----5-----5-----|
|-4s6-6---6-----6-----6-----|-4s6-6---6-----6-----6-----|
|-5s7-----7-----7-----7-----|-5s7-----7-----7-----7-----|
|-0-----------------0-------|-0-----------------0-------|
|---------------------------|---------------------------|


  G A
  S E S S E   S S  S  E   S E.
|-----5---5---------------5------|
|-3s5-5---5--------5--5---5------|
|-4s6-6---6--------6--6---6------|
|-5s7-----7--------7--7---7------|
|-0-----------0---(0)-0-0--------|
|-----------0--------------------|
  Q.        S E   +S  S E   E.


  G     A                          G   A
  S     +S  S S E S S S S E S E.   S   +S  S S S S S S S  S  E   S E.
|-----------5-----5--------------|---------5-------5----------------------|
|-----------5-----5---------5----|---------5-------5-------------5--------|
|-7b8.5-(7)-------6-----6---6----|-7b9-(7)---------6-------------6--------|
|-----------------7-----7---7----|---------------7--------7--7---7--------|
|-----------------------0---0----|---------------------0--0--0---0--------|
|--------------------------------|----------------------------------------|
|
| Gtr II
| S      E    S E S S S S E S E.   S    E    S S S E   S  E    S S S  S S
|--------------------------------|----------------------------------------|
|-3s=====5----5---5---------5----|-3s===5----5----------------------------|
|-4s=====6----6---6-----6---6----|-4s===6----6----------------------------|
|-----------------------7--------|---------------7-------(7)---5-7--------|
|--------------------------------|---------------------------------7--9-7-|
|--------------------------------|----------------------------------------|


  G   A
  S   +S  S S S S S S E S   +S  S S   +S  S
|---------5---------------------5------------|
|-----------------5-----5---(5)--------------|
|-7b9-(7)---------6-----7b9-(7)---7b9r(7)-5--|
|-----------------7--------------------------|
|---------------0----------------------------|
|--------------------------------------------|
|
| S    E    S E   S S Q         S S    S  S
|--------------------------------------------|
|-3s===5----5-----5--------------------------|
|-4s===6----6-----6--------------------------|
|--------------------------------------------|
|---------------------------------7----9--7--|
|--------------------------------------------|


  G A
      |3|
  E   S E   S  S  S S S S  S S S E.
|-----------------5---------------------||
|-----------------5---------------------||
|-7---5h6---------6--------6-6-6--------||
|-------------(7)----------7-7-7--------||
|-----------------------0---------------||
|---------------------------------------||
|
| S E     S E     S S S E.     S S  S S
|---------------------------------------||
|-3s5-----5-------5---------------------||
|-4s6-----6-------6-----2---------------||
|---------------------------------------||
|--------------------------------7--9-7-||
|---------------------------------------||


 1st Verse
  G A                        G A
  a Q     Q     H            S E S S S S S S S E   S E.
|-3s5----------------------|-----5-----5-----5-5---5----------|
|-3s5----------------------|-3s5-5-----5-----5-5---5----------|
|-4s6----------------------|-4s6-6-----6-----6-6---6----------|
|-5s7----------------------|-5s7-------------7-7---7----------|
|--------------------------|-0-------0-------0-0---0----------|
|--------------------------|----------------------------------|
|
|   S E S S S E Q  S S S S   S E S E   S S E   S S S S  S S
|--------------------------|----------------------------------|
|---3s5-5-5-5--------------|-3s5-5-----5----------------------|
|---4s6-6-6-6--------------|-4s6-6-----6----------------------|
|--------------------------|-------------------7--------------|
|--------------------7-9-7-|-------------------------7--9-7---|
|--------------------------|----------------------------------|


                          G A                          D
  E S S S E. H            S E S S S S S S E.  S  S E   E  S  S   Q     H
|-5-5-5-5---------------|-----5-----5----------------|----------------------|
|-5-5-5-5---------------|-3s5-5---x-5-----5---5------|----7-----------------|
|-6-6-6-6---------------|-4s6-6---x-6-----6---6------|----7-----------------|
|-7-7-7-7---------------|-5s7-------------7---7------|----7-----------------|
|-0---------------------|-0---------------0--(0)-----|-5--------------------|
|-----------------------|----------------------------|----------------------|
|
| E E   Q    Q  S S S S   S E S E   S S Q     S  S E   E.    S   S S E H
|-----------------------|----------------------------|----------------------|
|-----------------------|-3s5-5-----5----------------|----------10----------|
|-----------------------|-4s6-6-----6----------------|----------11----------|
|-7---------------------|---------------------7------|-0--------------------|
|-----------------7-9-7-|----------------------------|-0----(0)-------------|
|-----------------------|----------------------------|----------------------|


  C D                              A
  a E.    S E  S S S S E S S S S   Q.   S S E E Q
|--------------------------------|-----------------|
|-5s7-----7----7-----7-7-7---x-x-|-5---------------|
|-5s7-----7----7-----7-7-7---x-x-|-6------6--------|
|-5s7-----7----7-----7-7-7---x-x-|-7----7-7---7-7--|
|--------------------------------|-0----------0-0--|
|--------------------------------|-----------------|
|
|   S  E  S E  S S Q     E   S S   W
|--------------------------------|-----------------|
|---8s10-10---10-----------------|-----------------|
|---9s11-11---11-----------------|-----------------|
|--------------------------------|-----------------|
|----------------------------x-x-|-----------------|
|--------------------------------|-----------------|


  G A
  S E   S S S S S S  S S S S S E
|-------5-----5----------------------||
|-3s5---5-----5------5-----5---------||
|-4s6---6-----6------6-----6---------||
|-5s7----------------7-----7---------||
|-0---------0------------0-----------||
|------------------------------------||
|
| S S S S S S S S E.     S S S S S
|------------------------------------||
|-3s4s5-------5----------------------||
|-4s5s6-------6----------------------||
|-------7---x-7----------x-7---------||
|----------------------------7h9-----||
|------------------------------------||


   2nd - 4th Verses
    $
    G A
    a E. S E   S S H
||--3s5--5--------------------|
||o-3s5--5--------------------|
||--4s6--6--------------------|
||--5s7--7-----7--------------|
||o-0----------0--------------|
||----------------------------|
|
|     E. S S S S S Q  S S S S
||----------------------------|
||o---------------------------|
||----------------------------|
||----7--7---x-7--------------|
||o---------------------7h9-7-|
||----------------------------|


  G A                               G A
  a E.   S  E S S S S S S S S E     S E   S E. S E E Q
|-3s5----5----5-------------------|--------------------------|
|-3s5----5----5-----------5-------|-3s5----------------------|
|-4s6----6----6-----------6-------|-4s6----------6---6-------|
|-5s7---(7)---7-----7-----7-------|-5s7----------7-7-7-------|
|-0-----------0-------0-0---------|-0----------0-------------|
|---------------------------------|--------------------------|
|
|   S E  S  E S S Q       S S S S   E   E   Q    Q   S S S S
|---------------------------------|--------------------------|
|---3s5--5----5-------------------|--------------------------|
|---4s6--6----6-------------------|--------------------------|
|-------------------------7-------|-7------------------------|
|---------------------------7-9-7-|--------------------7-9-7-|
|---------------------------------|--------------------------|


  G A                           D
  S E S S  S  S S S S E S S E    Q  E S S H
|-3s5-5-------5---------------|--------------------|
|-3s5-5-------5---------5-----|--------------------|
|-4s6-6-------6-----6---6-----|-/7--7---7----------|
|-5s7------7------7-7---7-----|-/7--7---7----------|
|-0-------(0)-----0---0-------|-/5--5-5------------|
|-----------------------------|--------------------|
|
| S E S E     S S Q     S S E    H        Q   S E.
|-----------------------------|--------------------|
|-3s5-5-------5---------------|--------------10----|
|-4s6-6-------6---------------|--------------11----|
|-----------------------7-----|--------------------|
|-----------------------------|--------------------|
|-----------------------------|--------------------|


  C D
  S  E  S E    S S S S E   S S E
|--------------------------------|
|-5s=7--7------7-----------7-----|
|-5s=7--7------7-------7---7-----|
|-5s=7--7------7-------7---7-----|
|--------------------5-----------|
|--------------------------------|
|
| S  E  S S S  S S S S S S Q
|--------------------------------|
|-8s10-10-----10-------x---------|
|-9s11-11---x-11-x-x-x-x---------|
|-----------x----x-x-x-----------|
|--------------------------------|
|--------------------------------|


    A                     G6A6      A
  a E S  S  E E E E E E   S E S S S S S S S E S S E
|-----------------------|-----5---------------5-----|
|-------(0)-------------|-5s7-5-----5---------5-----|
|-----------------------|-4s6-6-----6---------6-----|
|-5s7-7-------x-x-x-x-x-|-5s7-------7-----7-7-------|
|-----------------------|-0-------0-----0-0-0-------|
|-3s5-5-----------------|---------------------------|
|
|   W                     S E S S S S S Q     S S E
|-----------------------|---------------------------|
|-----------------------|-3s5-5-----5---------------|
|-----------------------|-4s6-6-----6---------6-----|
|-----------------------|---------7-----------7-----|
|-----------------------|---------------------0-----|
|-----------------------|---------------------------|


  D/F#
  a S E    S E  S S S S S S  S E.
|-----------------------------------|
|----------7----7------------7------|
|-----7----7----7-----7-7----7------|
|-7s9-7----7----7-----7-7----7------|
|-------------------9-----9---------|
|-----------------------------------|
|
|   E   S  S E  S S Q        S S  E
|-----------------------------------|
|---------10---10-----------10------|
|---------11---11-----------11------|
|-----------------------------------|
|-----------------------------------|
|-----------------------------------|


                                                             To Coda
  G A                                E
  S E   S S S S S S  S   E  S E.     E.  S     S S  E E E +S  S S S
|-------5-----5-------------5------|-----------------------------------|
|-3s5---5-----5-------------5------|-9---9-----9-----------------------|
|-4s6---6-----6---------(6)-6------|-9---9-----9-----------------------|
|-5s7---------------(7)-----7------|-9---9-----9--------7-(7)-7-7-x----|
|-0---------0-0--------------------|-7------------------5-(5)-5-5-x----|
|----------------------------------|-----------------------------------|
|
| E   S S E   S S Q         S S  E   E.  T  T  S E.   Q    E    S S
|----------------------------------|-----------------------------------|
|-------5-----5-------------5------|----------12-----------------------|
|-------6-----6-------------6------|----------13-----------------------|
|----------------------------------|----14-14--------------------------|
|----------------------------------|----------------------------x-x----|
|----------------------------------|-----------------------------------|


  G A
  S E   S S S S S S S S S S E.
|-------5-----5-----------5------|
|-3s5---5-----5-----------5------|
|-4s6---6-----6-----------6------|
|-5s7---------------7-----7------|
|-0---------0-0-------0----------|
|--------------------------------|
|
| S S S S E   S S Q       S S  E
|--------------------------------|
|-------5-----5------------------|
|-4s6-6-6-----6-----------6------|
|-5s7-7-------------------7------|
|--------------------------------|
|--------------------------------|


 1.                                2.
  G A                               G A
  S E   S E S S S S S S S S S S     S E S S S S S S S S S E   E
|-------5---5-----5--------------||-----5-----5-----5-----------|
|-3s5---5---5-----5---5-5---x-x-o||-3s5-5-----5-----5---5-5-----|
|-4s6---6---6-----6---6-6---x-x--||-4s6-6-----6-----6---6-6-----|
|-5s7-----------------7-7---x-x--||-5s7-----7-----7-----7-7-----|
|-0---------------------0---x-x-o||-0-------------0---0-0-0-----|
|--------------------------------||-----------------------------|
|
| S S S S E S S E   S S S S S S     S E S E   S S Q       S S E
|--------------------------------||-----------------------------|
|-3s4s5-5---5---------5-5-------o||-----5-----5-----------------|
|-4s5s6-6---6---------6-6--------||-4s6-6-----6-----------------|
|-5s6s7---------------------7----||-5s7-------------------7-----|
|-------------------------------o||-----------------------------|
|--------------------------------||-----------------------------|


  G   A                                     G   A
  S   +S  S S E   S S S  S  S S S  E.       S   +S  S S E   S S S S  E S S E
|---------5-------5-------------5---------|---------5-------5------------------|
|-5---(5)-5-------5------5--x---5---------|---------5-------5-----5----5-------|
|-7b9-(7)---------6------6--x-6-6---------|-7b9-(7)---------6-----6----6-------|
|-----------------7------7--x-7-7---------|-----------------7-----7----7-------|
|-----------------------(0)-x-0-0---------|-----------------------0----0-------|
|-----------------------------------------|------------------------------------|
|
| S    E    S S S S S S  S  S S S  S   E    S    S  S S S S S S S E.   S S S S
|-----------------------------------------|------------------------------------|
|-----------5-----5------5------5---------|-----------5---x-5-----5------------|
|-4s===6----6-----6------6------6---------|-4s===6--6-6---x-6-----6----6---x-x-|
|-5s===7--------7-------------7---(7)-(9)-|-5s===7--7------------------7---x-x-|
|---------------0-------------0----7---9--|------------------------------------|
|-----------------------------------------|------------------------------------|


  G   A
  S   +S  S S E     S S E   S   +S  S S   +S  S
|---------5-------------------------5-----------|
|---------5---------5-------5---(5)-------------|
|-7b9-(7)-----------6-------7b9-(7)---7b8r(7)-5-|
|-------------------7---------------------------|
|-----------------------------------------------|
|-----------------------------------------------|
|
| S    S  S S S  S  S S S S E       S S    S  S
|-----------------------------------------------|
|-----------5-------5---------------5-----------|
|-4s===6--6-6-------6---------------6------x--x-|
|-5s===7--7-----(7)-------x-x-------7------x--x-|
|-----------------------------------------------|
|-----------------------------------------------|


                     D.S. al Coda
  G A
      |3|
  E   S E   E   S S S S E   S E.
|-----------------------------------||
|---------------5-----5-----5-------||
|-7---5h6-------6-----6-----6-------||
|---------------7-----7-----7-------||
|---------------------0-----0-------||
|-----------------------------------||
|
| S E     S S S S S S S S S E    E
|-----------------------------------||
|---------5-----5-----x-------------||
|-4s6-----6-----6-----x-6-x---------||
|-5s7-------------------7-x-7-------||
|-------------0---------------------||
|-----------------------------------||


 Outro
  &
  G A                         G   A
  S E S S S  S  S S S E E E   S   +S  S S S   +S  S S S S S S S  S E
|-----5------5--------------|---------5-----------5-------5---5------|
|-3s5-5------5--------------|---------5-----------5-------5---5------|
|-4s6-6------6--------------|-7b9-(7)-----7b9-(7)---------6---6------|
|-5s7-------(7)-------------|---------------------------7-----7------|
|-0-------0-----------0---0-|---------------------------0-----0------|
|-------------------2---2---|----------------------------------------|
|
| S E S E    S  S H           S    E    S E       S S S S E   Q
|---------------------------|----------------------------------------|
|-----5------5--------------|-----------5---------5-----------5\-----|
|-4s6-6------6--------------|-4s===6----6---------6-----------6\-----|
|-5s7-----------------------|-5s===7--------------------7-----7\-----|
|---------------------------|---------------------------0-----0------|
|---------------------------|----------------------------------------|


  F#  A
  S   +S  S S S   +S  S S S S S S S E.
|---------5-----------5-------5---5----|
|---------5-----------5-------5---5----|
|-7b9-(7)-----7b9-(7)---------6---6----|
|---------------------------7-----7----|
|---------------------------0-----0----|
|--------------------------------------|
|
| S    E    S E       S S S S S S S E.
|--------------------------------------|
|-2s===5----5---------5-----------5----|
|-3s===6----6---------6-----------6----|
|---------------------------7-----7----|
|-----------------------------0---0----|
|--------------------------------------|


  G   A
  S   +S  S S S   +S  S S S S S S S   +S  S S
|---------5-----------5-------5-----------5-----|
|---------5-----------5-------5-----------------|
|-7b9-(7)-----7b9-(7)---------6---7b9-(7)---7b8r|
|---------------------------7-------------------|
|---------------------------0-------------------|
|-----------------------------------------------|
|
| S    E    S S    S  S S Q       E       S S
|-----------------------------------------------|
|-----------5---------5-5-----------------------|
|-4s===6----6-4----6--6-6-----------------2-----|
|-5s===7------6----7----------------------------|
|-----------------------------------------------|
|-----------------------------------------------|


  G  A
             ~
  +S S S S a E S S S S S S S E.
|----------------------5---5--------|
|----------------------5---5--------|
|-(7)5-----------------6---6--------|
|------7-x-5h7-5-------7---7--------|
|--------------------0-----0--------|
|-----------------------------------|
|
|  S S S S   E S S S S S S E     E
|-----------------------------------|
|------5-5-----5--------------------|
|--4s6-6-6-----6--------------------|
|--------------5-----7-7------------|
|-------------------------------(0)-|
|-----------------------------------|


  G   A
  S   +S  S S   +S  +S  S S S S S S S S S   +S
|---------5-5---(5)-(5)-5-----------------------|
|-----------5---(5)-(5)-5-------5---5---5---(5)-|
|-7b9-(7)---7b9-(7)-(7)---------6---6---7b9-(7)-|
|-------------------------------7---7-----------|
|-----------------------------0-----0-----------|
|-----------------------------------------------|
|
| S    E    S    E      S S Q       S S S    S
|-----------------------------------------------|
|-----------5-----------5-----------------------|
|-4s===6----6-----------6--------------------2--|
|-5s===7----------------7-------------2h4-------|
|-----------------------0-----------------------|
|-----------------------------------------------|


  G  A
  +S +S  S S S   +S  S S S S a S S S S S   +S
|--------5-----------5-------------------------|
|-(5)(5)-5-----------5-----------------5---(5)-|
|-(7)(7)-----7b9-(7)-------2---2-------7b9-(7)-|
|----------------------------2h4---x-----------|
|------------------------------0---x-----------|
|----------------------------------------------|
|
|  S  E    S E       S S S S   S S Q
|----------------------------------------------|
|----------5---------5-------------------------|
|--4s=6----6---------6-------------------------|
|--5s=7--------------------2h==4---------------|
|----------------------------------------------|
|----------------------------------------------|


  G  A
  +S +S  S S S   +S  S S S S E E S    +S
|--------5-----------5--------------------|
|-(5)(5)-------------5-----------5----(5)-|
|-(7)(7)-----7b9-(7)-------------7b9==(7)-|
|--------------------------7-x-x----------|
|--------------------------0-x-x----------|
|-----------------------------------------|
|
|  S  E    S E       S S H
|-----------------------------------------|
|----------5---------5--------------------|
|--4s=6----6---------6--------------------|
|--5s=7-----------------------------------|
|-----------------------------------------|
|-----------------------------------------|


  G  A
  +E   S S +S  S S S E S S S S  S   +S
|------5---------------------------------|
|-(5)--5------------------------5---(5)--|
|-(7)----7r(7)-5-------6---6----7b9-(7)--|
|----------------7-----7---7-------------|
|----------------------------------------|
|----------------------------------------|
|
|  S E   S  E    S S E S S E    S    S
|----------------------------------------|
|--------5-------5-----------------------|
|--4s6---6-------6-----------------------|
|--5s7-----------------7-------(5)-------|
|----------------------------------------|
|----------------------------------------|


  G  A                                     G     A
  +S +S  S S S   +S  S S S S S S S S S S   S     +S  S S S   +S  S S  S  S E S S S    +S
|--------5-----------5-------------------|-----------5-----------5------------------------|
|-(5)(5)-------------5-------------------|-----------5-----------5---------------5----(5)-|
|-(7)(7)-----7b8-(7)---------------------|-7b8.5-(7)-----7b9-(7)-------------6---7b9--(7)-|
|--------------------------x-7---7---4---|-------------------------------7-7-7------------|
|--------------------------x-0---0-------|-------------------------------0-0-0------------|
|----------------------------------------|------------------------------------------------|
|
|  S  E    S E       S S H                 S      E    S E       S S  S  S E S S S     S
|----------------------------------------|------------------------------------------------|
|----------5---------5-------------------|-------------5---------5------------------------|
|--4s=6----6---------6-------------------|-4s=====6----6---------6------------------------|
|--5s=7--------------7-------------------|-5s=====7------------------(7)-7----------------|
|----------------------------------------|-------------------------------------7h9---(10)-|
|----------------------------------------|------------------------------------------------|


  G  A
  +S +S  S S S   +S  S S Q  S   +S S S
|--------5-----------5-------------5--------|
|-(5)(5)-------------5----------------------|
|-(7)(7)-----7b9-(7)--------7b9-(7)--7b8r===|
|-------------------------------------------|
|-------------------------------------------|
|-------------------------------------------|
|
|  S  E    S E       S S Q  S    S S S
|-------------------------------------------|
|----------5---------5----------------------|
|--4s=6----6---------6----------------------|
|--5s=7------------------------------7------|
|--------------------------------7h9-7------|
|-------------------------------------------|


  G  A                                         G A
               ~                                   ~~~~~~~~
  +S S     S S Q     E S   +S    S S   +S  S   S S E   +Q        E S   +S  S T   +T  S S
|--------------------------------5-----------|-----------------------------5-----------5-|
|--------------------------------------------|---------------------5---(5)-----------5---|
|-(7)5b5.5-------------7b9-(7)-----7b8r(7)-5-|---------------------7b9-(7)---7b8-(7)-----|
|----------7---7-----------------------------|-7---7---(7)-------------------------------|
|--------------------------------------------|-------------------------------------------|
|--------------------------------------------|-------------------------------------------|
|
|  S E       S E S S E S    S  a E      S  S   S E   S  S  S S S H
|--------------------------------------------|-------------------------------------------|
|------------5---5---------------------------|-------5-------5---------------------------|
|--4s6-------6---6---------------------------|-4s6---6-------6---------------------------|
|--5s7-----------------7----------------7----|-5s7---------7-----------------------------|
|------------------------------7h9-----------|-------------------------------------------|
|--------------------------------------------|-------------------------------------------|


  G   A
  S   +S  S S Q     E S   +S    S T   +T  S S
|---------5---------------------5-----------5-|
|---------------------5---(5)-------------5---|
|-7b9-(7)-------------7b9-(7)-----7b8-(7)-----|
|---------------------------------------------|
|---------------------------------------------|
|---------------------------------------------|
|
| S    E    S E S S E S    S  a E         S S
|---------------------------------------------|
|-----------5---5-----------------------------|
|-4s===6----6---6-----------------------------|
|-5s===7--------------7-------------------7---|
|-----------------------------7h9-------------|
|---------------------------------------------|


  G   A
  S   +S  S S Q       E S   +S  S S   +S  S
|---------5---------------------5---------5-|
|---------5-------------5---(5)-5-----------|
|-7b9-(7)---------------7b9-(7)---7b9-(7)---|
|-------------------------------------------|
|-------------------------------------------|
|-------------------------------------------|
|
| S    E    S S S S S H
|-------------------------------------------|
|-----------5-----5-------------------------|
|-4s===6----6-----6-------------------------|
|-5s===7--------7---------------------------|
|-------------------------------------------|
|-------------------------------------------|


  G   A                                       G   A
  S   +S  S S Q       E S   +S  S S   +S  S   S   +S  S S Q       H
|---------5---------------------5---------5-|---------5----------------*|
|-------------------------------------------|---------5----------------*|
|-7b9-(7)---------------7b9-(7)---7b9-(7)---|-7b9-(7)------------------*|
|-------------------------------------------|--------------------------*|
|-------------------------------------------|--------------------------*|
|-------------------------------------------|--------------------------*|
|
| S    E    S S S S S H                       S    E    S S S S S H
|-------------------------------------------|--------------------------*|
|-----------5-----5-------------------------|-----------5-----5--------*|
|-4s===6----6-----6-------------------------|-4s===6----6-----6--------*|
|-5s===7--------7---------------------------|-5s===7--------7----------*|
|-------------------------------------------|--------------------------*|
|-------------------------------------------|--------------------------*|


Duration Legend
---------------
W - whole; H - half; Q - quarter; E - 8th; S - 16th; T - 32nd; X - 64th; a - acciaccatura
+ - note tied to previous; . - note dotted; .. - note double dotted
Uncapitalized letters represent notes that are staccato (1/2 duration)
Irregular groupings are notated above the duration line
Duration letters will always appear directly above the note/fret number it represents the
duration for.  Duration letters with no fret number below them represent rests.  Multi-
bar rests are notated in the form Wxn, where n is the number of bars to rest for.  Low
melody durations appear below the staff

Tablature Legend
----------------
 h   - hammer-on
 p   - pull-off
 b   - bend
 pb  - pre-bend
 r   - bend release (if no number after the r, then release immediately)
 /\  - slide into or out of (from/to "nowhere")
 s   - legato slide
 S   - shift slide
  - natural harmonic
[n]  - artificial harmonic
n(n) - tapped harmonic
 ~   - vibrato
 tr  - trill
 T   - tap
 TP  - trem. picking
 PM  - palm muting
\n/  - tremolo bar dip; n = amount to dip
 \n  - tremolo bar down
 n/  - tremolo bar up
/n\  - tremolo bar inverted dip
 =   - hold bend; also acts as connecting device for hammers/pulls
 <>  - volume swell (louder/softer)
 x   - on rhythm slash represents muted slash
 o   - on rhythm slash represents single note slash

Misc Legend
-----------
 |  - bar
||  - double bar
||o - repeat start
o|| - repeat end
*|  - double bar (ending)
 :  - bar (freetime)
 $  - Segno
 &  - Coda
Tempo markers -  = BPM(8/16=s8/s16), where s8 = swing 8ths, s16 = swing 16ths

 
 
Eric Clapton - Willie And The Hand Jive Tab :: indexed at Ultimate Guitar.
Willie And The Hand Jive tabs @ 911Tabs

About the artist behind Willie And The Hand Jive Tab:

Eric Patrick Clapton, CBE (born 30 March 1945), is a English blues-rock guitarist, singer, songwriter and composer. He is one of the most successful musicians of the 20th and 21st centuries,[1] garnering an unprecedented three inductions into the Rock and Roll Hall of Fame (The Yardbirds, Cream, and solo). Often viewed by critics and fans alike as one of the greatest guitarists of all time[2], Clapton was ranked fourth in Rolling Stone Magazine's list of the "100 Greatest Guitarists of All Time"[3] and #53 on their list of the Immortals: 100 Greatest Artists of All Time.[4]

Although Clapton's musical style has varied throughout his career, it has always remained rooted in the blues. Clapton is credited as an innovator in several phases of his career, which have included blues-rock (with John Mayall & the Bluesbreakers and The Yardbirds) and psychedelic rock (with Cream). Clapton has also achieved great chart success in genres ranging from Delta blues (Me and Mr. Johnson) to pop ("Change the World") and reggae (Bob Marley's "I Shot the Sheriff"). Clapton also achieved fame with Derek and the Dominos through the hit song "Layla".

Indexed at Wikipedia.

Show us your talent, perform Willie And The Hand Jive Tab!

Here you can post a video or audio performance. Tell me more ...
Where can we find your performance? Tell me more ...
Your comment:
Please, log in to post your performance.